  0
SECTION
  2
HEADER
  9
$ACADVER
  1
AC1014
  9
$ACADMAINTVER
 70
     9
  9
$DWGCODEPAGE
  3
ANSI_932
  9
$INSBASE
 10
0.0
 20
0.0
 30
0.0
  9
$EXTMIN
 10
-1627.827487815826
 20
-736.8342382170793
 30
0.0
  9
$EXTMAX
 10
1803.114707535492
 20
1316.054167374879
 30
0.0
  9
$LIMMIN
 10
-4200.0
 20
-2970.0
  9
$LIMMAX
 10
4200.0
 20
2970.0
  9
$ORTHOMODE
 70
     0
  9
$REGENMODE
 70
     1
  9
$FILLMODE
 70
     1
  9
$QTEXTMODE
 70
     0
  9
$MIRRTEXT
 70
     0
  9
$DRAGMODE
 70
     2
  9
$LTSCALE
 40
20.0
  9
$OSMODE
 70
    37
  9
$ATTMODE
 70
     1
  9
$TEXTSIZE
 40
64.0
  9
$TRACEWID
 40
0.05
  9
$TEXTSTYLE
  7
STANDARD
  9
$CLAYER
  8
0
  9
$CELTYPE
  6
CONTINUOUS
  9
$CECOLOR
 62
     7
  9
$CELTSCALE
 40
1.0
  9
$DELOBJ
 70
     1
  9
$DISPSILH
 70
     0
  9
$DIMSCALE
 40
1.0
  9
$DIMASZ
 40
10.0
  9
$DIMEXO
 40
20.0
  9
$DIMDLI
 40
200.0
  9
$DIMRND
 40
0.0
  9
$DIMDLE
 40
0.0
  9
$DIMEXE
 40
30.0
  9
$DIMTP
 40
0.0
  9
$DIMTM
 40
0.0
  9
$DIMTXT
 40
64.0
  9
$DIMCEN
 40
0.0
  9
$DIMTSZ
 40
0.0
  9
$DIMTOL
 70
     0
  9
$DIMLIM
 70
     0
  9
$DIMTIH
 70
     0
  9
$DIMTOH
 70
     0
  9
$DIMSE1
 70
     0
  9
$DIMSE2
 70
     0
  9
$DIMTAD
 70
     1
  9
$DIMZIN
 70
     8
  9
$DIMBLK
  1
DOTBLANK
  9
$DIMASO
 70
     1
  9
$DIMSHO
 70
     0
  9
$DIMPOST
  1

  9
$DIMAPOST
  1

  9
$DIMALT
 70
     0
  9
$DIMALTD
 70
     2
  9
$DIMALTF
 40
25.4
  9
$DIMLFAC
 40
1.0
  9
$DIMTOFL
 70
     1
  9
$DIMTVP
 40
0.0
  9
$DIMTIX
 70
     1
  9
$DIMSOXD
 70
     0
  9
$DIMSAH
 70
     0
  9
$DIMBLK1
  1
DOTBLANK
  9
$DIMBLK2
  1
ORIGIN
  9
$DIMSTYLE
  2
STANDARD
  9
$DIMCLRD
 70
     0
  9
$DIMCLRE
 70
     0
  9
$DIMCLRT
 70
     0
  9
$DIMTFAC
 40
1.0
  9
$DIMGAP
 40
0.09
  9
$DIMJUST
 70
     0
  9
$DIMSD1
 70
     0
  9
$DIMSD2
 70
     0
  9
$DIMTOLJ
 70
     1
  9
$DIMTZIN
 70
     0
  9
$DIMALTZ
 70
     0
  9
$DIMALTTZ
 70
     0
  9
$DIMFIT
 70
     3
  9
$DIMUPT
 70
     0
  9
$DIMUNIT
 70
     2
  9
$DIMDEC
 70
     4
  9
$DIMTDEC
 70
     4
  9
$DIMALTU
 70
     2
  9
$DIMALTTD
 70
     2
  9
$DIMTXSTY
  7
STANDARD
  9
$DIMAUNIT
 70
     0
  9
$LUNITS
 70
     2
  9
$LUPREC
 70
     4
  9
$SKETCHINC
 40
0.1
  9
$FILLETRAD
 40
0.0
  9
$AUNITS
 70
     1
  9
$AUPREC
 70
     3
  9
$MENU
  1
ACAD
  9
$ELEVATION
 40
0.0
  9
$PELEVATION
 40
0.0
  9
$THICKNESS
 40
0.0
  9
$LIMCHECK
 70
     0
  9
$BLIPMODE
 70
     0
  9
$CHAMFERA
 40
0.0
  9
$CHAMFERB
 40
0.0
  9
$CHAMFERC
 40
0.0
  9
$CHAMFERD
 40
0.0
  9
$SKPOLY
 70
     0
  9
$TDCREATE
 40
2449761.493622685
  9
$TDUPDATE
 40
2453973.718141898
  9
$TDINDWG
 40
1.0865151736
  9
$TDUSRTIMER
 40
1.0865150000
  9
$USRTIMER
 70
     1
  9
$ANGBASE
 50
0.0
  9
$ANGDIR
 70
     0
  9
$PDMODE
 70
    35
  9
$PDSIZE
 40
100.0
  9
$PLINEWID
 40
0.0
  9
$COORDS
 70
     0
  9
$SPLFRAME
 70
     0
  9
$SPLINETYPE
 70
     6
  9
$SPLINESEGS
 70
     8
  9
$ATTDIA
 70
     0
  9
$ATTREQ
 70
     1
  9
$HANDLING
 70
-16383
  9
$HANDSEED
  5
244
  9
$SURFTAB1
 70
     6
  9
$SURFTAB2
 70
     6
  9
$SURFTYPE
 70
     6
  9
$SURFU
 70
     6
  9
$SURFV
 70
     6
  9
$UCSNAME
  2

  9
$UCSORG
 10
0.0
 20
0.0
 30
0.0
  9
$UCSXDIR
 10
1.0
 20
0.0
 30
0.0
  9
$UCSYDIR
 10
0.0
 20
1.0
 30
0.0
  9
$PUCSNAME
  2

  9
$PUCSORG
 10
0.0
 20
0.0
 30
0.0
  9
$PUCSXDIR
 10
1.0
 20
0.0
 30
0.0
  9
$PUCSYDIR
 10
0.0
 20
1.0
 30
0.0
  9
$USERI1
 70
     0
  9
$USERI2
 70
     0
  9
$USERI3
 70
     0
  9
$USERI4
 70
     0
  9
$USERI5
 70
     0
  9
$USERR1
 40
20.0
  9
$USERR2
 40
0.0
  9
$USERR3
 40
0.0
  9
$USERR4
 40
0.0
  9
$USERR5
 40
0.0
  9
$WORLDVIEW
 70
     1
  9
$SHADEDGE
 70
     3
  9
$SHADEDIF
 70
    70
  9
$TILEMODE
 70
     1
  9
$MAXACTVP
 70
    64
  9
$PINSBASE
 10
0.0
 20
0.0
 30
0.0
  9
$PLIMCHECK
 70
     0
  9
$PEXTMIN
 10
1.000000000000000E+20
 20
1.000000000000000E+20
 30
1.000000000000000E+20
  9
$PEXTMAX
 10
-1.000000000000000E+20
 20
-1.000000000000000E+20
 30
-1.000000000000000E+20
  9
$PLIMMIN
 10
0.0
 20
0.0
  9
$PLIMMAX
 10
12.0
 20
9.0
  9
$UNITMODE
 70
     0
  9
$VISRETAIN
 70
     1
  9
$PLINEGEN
 70
     0
  9
$PSLTSCALE
 70
     1
  9
$TREEDEPTH
 70
  3020
  9
$PICKSTYLE
 70
     0
  9
$CMLSTYLE
  2
STANDARD
  9
$CMLJUST
 70
     0
  9
$CMLSCALE
 40
1.0
  9
$PROXYGRAPHICS
 70
     1
  9
$MEASUREMENT
 70
     0
  0
ENDSEC
  0
SECTION
  2
CLASSES
  0
CLASS
  1
ACDBDICTIONARYWDFLT
  2
AcDbDictionaryWithDefault
  3
AutoCAD 2000
 90
        0
280
     0
281
     0
  0
CLASS
  1
ACDBPLACEHOLDER
  2
AcDbPlaceHolder
  3
AutoCAD 2000
 90
        0
280
     0
281
     0
  0
CLASS
  1
LAYOUT
  2
AcDbLayout
  3
AutoCAD 2000
 90
        0
280
     0
281
     0
  0
CLASS
  1
LONG_TRANSACTION
  2
AcDbLongTransaction
  3
AutoCAD 2000
 90
        0
280
     0
281
     0
  0
CLASS
  1
LWPOLYLINE
  2
AcDbPolyline
  3
AutoCAD 2000
 90
        0
280
     0
281
     1
  0
CLASS
  1
HATCH
  2
AcDbHatch
  3
AutoCAD 2000
 90
        0
280
     0
281
     1
  0
CLASS
  1
XRECORD
  2
AcDbXrecord
  3
AutoCAD 2000
 90
        0
280
     0
281
     0
  0
ENDSEC
  0
SECTION
  2
TABLES
  0
TABLE
  2
VPORT
  5
8
330
0
100
AcDbSymbolTable
 70
     2
  0
VPORT
  5
21E
330
8
100
AcDbSymbolTableRecord
100
AcDbViewportTableRecord
  2
*ACTIVE
 70
     0
 10
0.0
 20
0.0
 11
1.0
 21
1.0
 12
204.8356680538465
 22
289.4954102915416
 13
0.0
 23
0.0
 14
50.0
 24
50.0
 15
100.0
 25
100.0
 16
0.0
 26
0.0
 36
1.0
 17
0.0
 27
0.0
 37
0.0
 40
2221.980076406552
 41
1.657997399219765
 42
50.0
 43
0.0
 44
0.0
 50
0.0
 51
0.0
 71
     0
 72
  1000
 73
     1
 74
     0
 75
     0
 76
     0
 77
     0
 78
     0
  0
ENDTAB
  0
TABLE
  2
LTYPE
  5
5
330
0
100
AcDbSymbolTable
 70
     2
  0
LTYPE
  5
13
330
5
100
AcDbSymbolTableRecord
100
AcDbLinetypeTableRecord
  2
BYBLOCK
 70
     0
  3

 72
    65
 73
     0
 40
0.0
  0
LTYPE
  5
14
330
5
100
AcDbSymbolTableRecord
100
AcDbLinetypeTableRecord
  2
BYLAYER
 70
     0
  3

 72
    65
 73
     0
 40
0.0
  0
LTYPE
  5
15
330
5
100
AcDbSymbolTableRecord
100
AcDbLinetypeTableRecord
  2
CONTINUOUS
 70
     0
  3
????
 72
    65
 73
     0
 40
0.0
  0
LTYPE
  5
22
330
5
100
AcDbSymbolTableRecord
100
AcDbLinetypeTableRecord
  2
DASHDOT
 70
     0
  3
____ _ ____ _ ____ _ ____ _ ____ _ ____ _ ____
 72
    65
 73
     4
 40
5.5
 49
4.0
 74
     0
 49
-0.6
 74
     0
 49
0.3
 74
     0
 49
-0.6
 74
     0
  0
ENDTAB
  0
TABLE
  2
LAYER
  5
2
330
0
100
AcDbSymbolTable
 70
    12
  0
LAYER
  5
10
330
2
100
AcDbSymbolTableRecord
100
AcDbLayerTableRecord
  2
0
 70
     0
 62
     7
  6
CONTINUOUS
  0
LAYER
  5
23
330
2
100
AcDbSymbolTableRecord
100
AcDbLayerTableRecord
  2
OUTLINE
 70
     0
 62
     3
  6
CONTINUOUS
  0
LAYER
  5
24
330
2
100
AcDbSymbolTableRecord
100
AcDbLayerTableRecord
  2
DETAIL
 70
     0
 62
     5
  6
CONTINUOUS
  0
LAYER
  5
25
330
2
100
AcDbSymbolTableRecord
100
AcDbLayerTableRecord
  2
BASIS
 70
     0
 62
     6
  6
DASHDOT
  0
LAYER
  5
26
330
2
100
AcDbSymbolTableRecord
100
AcDbLayerTableRecord
  2
SIZE
 70
     0
 62
    30
  6
CONTINUOUS
  0
LAYER
  5
27
330
2
100
AcDbSymbolTableRecord
100
AcDbLayerTableRecord
  2
NOTE
 70
     0
 62
     4
  6
CONTINUOUS
  0
LAYER
  5
28
330
2
100
AcDbSymbolTableRecord
100
AcDbLayerTableRecord
  2
ARRANGE
 70
     0
 62
     1
  6
CONTINUOUS
  0
LAYER
  5
29
330
2
100
AcDbSymbolTableRecord
100
AcDbLayerTableRecord
  2
FIX
 70
     0
 62
    11
  6
CONTINUOUS
  0
LAYER
  5
2A
330
2
100
AcDbSymbolTableRecord
100
AcDbLayerTableRecord
  2
SERVICESPACE
 70
     0
 62
     2
  6
DASHDOT
  0
LAYER
  5
2B
330
2
100
AcDbSymbolTableRecord
100
AcDbLayerTableRecord
  2
ETC
 70
     0
 62
    61
  6
CONTINUOUS
  0
LAYER
  5
2C
330
2
100
AcDbSymbolTableRecord
100
AcDbLayerTableRecord
  2
SYMBOLLINE
 70
     0
 62
    15
  6
CONTINUOUS
  0
LAYER
  5
2D
330
2
100
AcDbSymbolTableRecord
100
AcDbLayerTableRecord
  2
DEFPOINTS
 70
     0
 62
     7
  6
CONTINUOUS
  0
ENDTAB
  0
TABLE
  2
STYLE
  5
3
330
0
100
AcDbSymbolTable
 70
     2
  0
STYLE
  5
11
330
3
100
AcDbSymbolTableRecord
100
AcDbTextStyleTableRecord
  2
STANDARD
 70
     0
 40
0.0
 41
0.9
 50
0.0
 71
     0
 42
64.0
  3
SIMPLEX
  4
BIGFONT
  0
STYLE
  5
2E
330
3
100
AcDbSymbolTableRecord
100
AcDbTextStyleTableRecord
  2
STANDARD1
 70
     0
 40
0.0
 41
1.0
 50
0.0
 71
     0
 42
64.0
  3
MONOTXT
  4
BIGFONT
  0
ENDTAB
  0
TABLE
  2
VIEW
  5
6
330
0
100
AcDbSymbolTable
 70
     1
  0
VIEW
  5
2F
330
6
100
AcDbSymbolTableRecord
100
AcDbViewTableRecord
  2
ALL
 70
     0
 40
6056.230032000001
 10
0.0
 20
58.11501599999999
 41
8400.0
 11
0.0
 21
0.0
 31
1.0
 12
0.0
 22
0.0
 32
0.0
 42
50.0
 43
0.0
 44
0.0
 50
0.0
 71
     0
  0
ENDTAB
  0
TABLE
  2
UCS
  5
7
330
0
100
AcDbSymbolTable
 70
     0
  0
ENDTAB
  0
TABLE
  2
APPID
  5
9
330
0
100
AcDbSymbolTable
 70
     1
  0
APPID
  5
12
330
9
100
AcDbSymbolTableRecord
100
AcDbRegAppTableRecord
  2
ACAD
 70
     0
  0
ENDTAB
  0
TABLE
  2
DIMSTYLE
  5
A
330
0
100
AcDbSymbolTable
 70
     1
  0
DIMSTYLE
105
21D
330
A
100
AcDbSymbolTableRecord
100
AcDbDimStyleTableRecord
  2
STANDARD
 70
     0
  3

  4

  5

  6

  7

 40
1.0
 41
0.18
 42
0.0625
 43
0.38
 44
0.18
 45
0.0
 46
0.0
 47
0.0
 48
0.0
140
0.18
141
0.09
142
0.0
143
25.4
144
1.0
145
0.0
146
1.0
147
0.09
 71
     0
 72
     0
 73
     1
 74
     1
 75
     0
 76
     0
 77
     0
 78
     0
170
     0
171
     2
172
     0
173
     0
174
     0
175
     0
176
     0
177
     0
178
     0
270
     2
271
     4
272
     4
273
     2
274
     2
340
11
275
     0
280
     0
281
     0
282
     0
283
     1
284
     0
285
     0
286
     0
287
     3
288
     0
  0
ENDTAB
  0
TABLE
  2
BLOCK_RECORD
  5
1
330
0
100
AcDbSymbolTable
 70
     2
  0
BLOCK_RECORD
  5
1E
102
{ACAD_XDICTIONARY
360
242
102
}
330
1
100
AcDbSymbolTableRecord
100
AcDbBlockTableRecord
  2
*MODEL_SPACE
  0
BLOCK_RECORD
  5
1A
102
{ACAD_XDICTIONARY
360
240
102
}
330
1
100
AcDbSymbolTableRecord
100
AcDbBlockTableRecord
  2
*PAPER_SPACE
  0
BLOCK_RECORD
  5
34
330
1
100
AcDbSymbolTableRecord
100
AcDbBlockTableRecord
  2
_ORIGIN
  0
BLOCK_RECORD
  5
39
330
1
100
AcDbSymbolTableRecord
100
AcDbBlockTableRecord
  2
_DOTBLANK
  0
ENDTAB
  0
ENDSEC
  0
SECTION
  2
BLOCKS
  0
BLOCK
  5
1F
330
1E
100
AcDbEntity
  8
0
100
AcDbBlockBegin
  2
*MODEL_SPACE
 70
     0
 10
0.0
 20
0.0
 30
0.0
  3
*MODEL_SPACE
  1

  0
ENDBLK
  5
20
330
1E
100
AcDbEntity
  8
0
100
AcDbBlockEnd
  0
BLOCK
  5
1B
330
1A
100
AcDbEntity
 67
     1
  8
0
100
AcDbBlockBegin
  2
*PAPER_SPACE
 70
     0
 10
0.0
 20
0.0
 30
0.0
  3
*PAPER_SPACE
  1

  0
ENDBLK
  5
1C
330
1A
100
AcDbEntity
 67
     1
  8
0
100
AcDbBlockEnd
  0
BLOCK
  5
35
330
34
100
AcDbEntity
  8
0
100
AcDbBlockBegin
  2
_ORIGIN
 70
     0
 10
0.0
 20
0.0
 30
0.0
  3
_ORIGIN
  1

  0
CIRCLE
  5
36
330
34
100
AcDbEntity
  8
0
  6
CONTINUOUS
 62
     7
100
AcDbCircle
 10
0.0
 20
0.0
 30
0.0
 40
0.5
  0
LINE
  5
37
330
34
100
AcDbEntity
  8
0
  6
CONTINUOUS
 62
     7
100
AcDbLine
 10
-0.5
 20
0.0
 30
0.0
 11
-1.0
 21
0.0
 31
0.0
  0
ENDBLK
  5
38
330
34
100
AcDbEntity
  8
0
100
AcDbBlockEnd
  0
BLOCK
  5
3A
330
39
100
AcDbEntity
  8
0
100
AcDbBlockBegin
  2
_DOTBLANK
 70
     0
 10
0.0
 20
0.0
 30
0.0
  3
_DOTBLANK
  1

  0
CIRCLE
  5
3B
330
39
100
AcDbEntity
  8
0
  6
CONTINUOUS
 62
     7
100
AcDbCircle
 10
0.0
 20
0.0
 30
0.0
 40
0.5
  0
LINE
  5
3C
330
39
100
AcDbEntity
  8
0
  6
CONTINUOUS
 62
     7
100
AcDbLine
 10
-0.5
 20
0.0
 30
0.0
 11
-1.0
 21
0.0
 31
0.0
  0
ENDBLK
  5
3D
330
39
100
AcDbEntity
  8
0
100
AcDbBlockEnd
  0
ENDSEC
  0
SECTION
  2
ENTITIES
  0
TEXT
  5
3E
330
1E
100
AcDbEntity
  8
0
  6
CONTINUOUS
 62
     7
100
AcDbText
 10
12761.29
 20
1934.172
 30
0.0
 40
3.2
  1
 
 50
0.000003
 41
0.5989580000000001
  7
STANDARD1
100
AcDbText
  0
LINE
  5
3F
330
1E
100
AcDbEntity
  8
DETAIL
  6
CONTINUOUS
 62
     5
100
AcDbLine
 10
722.9999999999985
 20
338.0
 30
0.0
 11
-723.000000000001
 21
337.9999999999985
 31
0.0
  0
CIRCLE
  5
40
330
1E
100
AcDbEntity
  8
ARRANGE
  6
CONTINUOUS
 62
     1
100
AcDbCircle
 10
0.0
 20
-0.0000000000004547
 30
0.0
 40
40.0
  0
LINE
  5
41
330
1E
100
AcDbEntity
  8
DETAIL
  6
CONTINUOUS
 62
     5
100
AcDbLine
 10
-723.000000000001
 20
47.99999999999863
 30
0.0
 11
722.9999999999985
 21
48.00000000000046
 31
0.0
  0
LINE
  5
42
330
1E
100
AcDbEntity
  8
DETAIL
  6
CONTINUOUS
 62
     5
100
AcDbLine
 10
842.9999999999996
 20
44.99999999999909
 30
0.0
 11
-843.0
 21
44.99999999999864
 31
0.0
  0
LINE
  5
43
330
1E
100
AcDbEntity
  8
DETAIL
  6
CONTINUOUS
 62
     5
100
AcDbLine
 10
874.9999999999996
 20
-0.0000000000004547
 30
0.0
 11
-875.0
 21
-0.0000000000004547
 31
0.0
  0
LINE
  5
44
330
1E
100
AcDbEntity
  8
DETAIL
  6
CONTINUOUS
 62
     5
100
AcDbLine
 10
867.9999999999996
 20
-8.000000000000909
 30
0.0
 11
-868.0
 21
-8.0
 31
0.0
  0
POINT
  5
45
330
1E
100
AcDbEntity
  8
ARRANGE
  6
CONTINUOUS
 62
     1
100
AcDbPoint
 10
0.0
 20
-0.0000000000004547
 30
0.0
  0
LINE
  5
46
330
1E
100
AcDbEntity
  8
DETAIL
  6
CONTINUOUS
 62
     5
100
AcDbLine
 10
-843.0
 20
44.99999999999952
 30
0.0
 11
-843.0
 21
-0.0000000000004547
 31
0.0
  0
LINE
  5
47
330
1E
100
AcDbEntity
  8
BASIS
  6
DASHDOT
 62
     6
100
AcDbLine
 10
0.0
 20
395.8640659999996
 30
0.0
 11
0.0
 21
-76.4181970000004
 31
0.0
  0
ARC
  5
48
330
1E
100
AcDbEntity
  8
DETAIL
  6
CONTINUOUS
 62
     5
100
AcDbCircle
 10
-868.0
 20
-1.000000000000454
 30
0.0
 40
7.0
100
AcDbArc
 50
180.0
 51
270.0
  0
LINE
  5
49
330
1E
100
AcDbEntity
  8
DETAIL
  6
CONTINUOUS
 62
     5
100
AcDbLine
 10
-875.0
 20
-1.000000000000454
 30
0.0
 11
-875.0
 21
-0.0000000000004547
 31
0.0
  0
LINE
  5
4A
330
1E
100
AcDbEntity
  8
DETAIL
  6
CONTINUOUS
 62
     5
100
AcDbLine
 10
-723.000000000001
 20
337.9999999999995
 30
0.0
 11
-723.000000000001
 21
44.99999999999952
 31
0.0
  0
CIRCLE
  5
4B
330
1E
100
AcDbEntity
  8
FIX
  6
CONTINUOUS
 62
    11
100
AcDbCircle
 10
-747.0
 20
147.9999999999994
 30
0.0
 40
20.0
  0
LINE
  5
4C
330
1E
100
AcDbEntity
  8
NOTE
  6
CONTINUOUS
 62
     4
100
AcDbLine
 10
-727.0
 20
147.9999999999994
 30
0.0
 11
-767.0
 21
147.9999999999994
 31
0.0
  0
LWPOLYLINE
  5
4D
330
1E
100
AcDbEntity
  8
NOTE
  6
CONTINUOUS
 62
     4
100
AcDbPolyline
 90
        3
 70
     0
 43
0.0
 10
-754.6983773379125
 20
187.2521972717181
 10
-747.0
 20
147.9999999999994
 10
-773.2930889879852
 20
178.1442115709683
  0
LINE
  5
52
330
1E
100
AcDbEntity
  8
NOTE
  6
CONTINUOUS
 62
     4
100
AcDbLine
 10
-747.0
 20
147.9999999999994
 30
0.0
 11
-961.5672928158263
 21
586.374426736013
 31
0.0
  0
LINE
  5
53
330
1E
100
AcDbEntity
  8
DETAIL
  6
CONTINUOUS
 62
     5
100
AcDbLine
 10
-723.0
 20
147.9999999999994
 30
0.0
 11
-773.0
 21
147.9999999999994
 31
0.0
  0
LINE
  5
54
330
1E
100
AcDbEntity
  8
DETAIL
  6
CONTINUOUS
 62
     5
100
AcDbLine
 10
-773.0
 20
147.9999999999994
 30
0.0
 11
-773.0
 21
145.6999999999998
 31
0.0
  0
LINE
  5
55
330
1E
100
AcDbEntity
  8
NOTE
  6
CONTINUOUS
 62
     4
100
AcDbLine
 10
-747.0
 20
127.9999999999995
 30
0.0
 11
-747.0
 21
167.9999999999994
 31
0.0
  0
LINE
  5
56
330
1E
100
AcDbEntity
  8
NOTE
  6
CONTINUOUS
 62
     4
100
AcDbLine
 10
836.9999999999985
 20
212.9999999999991
 30
0.0
 11
1223.903682999998
 21
-148.3351450000008
 31
0.0
  0
LINE
  5
57
330
1E
100
AcDbEntity
  8
NOTE
  6
CONTINUOUS
 62
     4
100
AcDbLine
 10
752.9999999999985
 20
71.99999999999909
 30
0.0
 11
1167.451224320756
 21
-575.3321279044647
 31
0.0
  0
LINE
  5
58
330
1E
100
AcDbEntity
  8
DETAIL
  6
CONTINUOUS
 62
     5
100
AcDbLine
 10
842.9999999999996
 20
44.99999999999909
 30
0.0
 11
842.9999999999996
 21
-0.0000000000009095
 31
0.0
  0
LINE
  5
59
330
1E
100
AcDbEntity
  8
NOTE
  6
CONTINUOUS
 62
     4
100
AcDbLine
 10
1167.451224320756
 20
-575.3321279044647
 30
0.0
 11
1345.442963320756
 21
-575.3321279044647
 31
0.0
  0
ARC
  5
5A
330
1E
100
AcDbEntity
  8
DETAIL
  6
CONTINUOUS
 62
     5
100
AcDbCircle
 10
867.9999999999996
 20
-1.000000000000909
 30
0.0
 40
7.0
100
AcDbArc
 50
270.0
 51
0.0
  0
LINE
  5
5B
330
1E
100
AcDbEntity
  8
DETAIL
  6
CONTINUOUS
 62
     5
100
AcDbLine
 10
874.9999999999996
 20
-0.0000000000009095
 30
0.0
 11
874.9999999999996
 21
-1.000000000000909
 31
0.0
  0
LINE
  5
5C
330
1E
100
AcDbEntity
  8
NOTE
  6
CONTINUOUS
 62
     4
100
AcDbLine
 10
1223.903682999998
 20
-148.3351450000008
 30
0.0
 11
1521.678999999998
 21
-148.3351450000008
 31
0.0
  0
TEXT
  5
5D
330
1E
100
AcDbEntity
  8
NOTE
  6
CONTINUOUS
 62
     4
100
AcDbText
 10
1259.493665910475
 20
-122.0872162825848
 30
0.0
 40
64.0
  1
CL,EL
 41
0.9
100
AcDbText
  0
TEXT
  5
5E
330
1E
100
AcDbEntity
  8
NOTE
  6
CONTINUOUS
 62
     4
100
AcDbText
 10
1203.594602320756
 20
-551.9962529044651
 30
0.0
 40
64.0
  1
D2
 41
0.9
100
AcDbText
  0
LINE
  5
5F
330
1E
100
AcDbEntity
  8
NOTE
  6
CONTINUOUS
 62
     4
100
AcDbLine
 10
789.9999999999985
 20
215.9999999999994
 30
0.0
 11
1242.697765808149
 21
583.7848652465031
 31
0.0
  0
LINE
  5
60
330
1E
100
AcDbEntity
  8
NOTE
  6
CONTINUOUS
 62
     4
100
AcDbLine
 10
795.9999999999985
 20
215.9999999999989
 30
0.0
 11
1292.757627535492
 21
-367.5340543476385
 31
0.0
  0
TEXT
  5
61
330
1E
100
AcDbEntity
  8
NOTE
  6
CONTINUOUS
 62
     4
100
AcDbText
 10
1157.859060525342
 20
806.7951478713139
 30
0.0
 40
64.0
  1
D1 VP-25
 41
0.9
100
AcDbText
  0
LINE
  5
62
330
1E
100
AcDbEntity
  8
NOTE
  6
CONTINUOUS
 62
     4
100
AcDbLine
 10
722.9999999999989
 20
277.999999999999
 30
0.0
 11
1124.134438989566
 21
780.786220871314
 31
0.0
  0
LINE
  5
63
330
1E
100
AcDbEntity
  8
NOTE
  6
CONTINUOUS
 62
     4
100
AcDbLine
 10
1599.649250989567
 20
780.786220871314
 30
0.0
 11
1124.134438989566
 21
780.786220871314
 31
0.0
  0
LINE
  5
64
330
1E
100
AcDbEntity
  8
DETAIL
  6
CONTINUOUS
 62
     5
100
AcDbLine
 10
722.9999999999985
 20
337.9999999999995
 30
0.0
 11
722.9999999999985
 21
44.99999999999952
 31
0.0
  0
LINE
  5
65
330
1E
100
AcDbEntity
  8
NOTE
  6
CONTINUOUS
 62
     4
100
AcDbLine
 10
856.9999999999986
 20
212.9999999999991
 30
0.0
 11
816.9999999999985
 21
212.9999999999991
 31
0.0
  0
LWPOLYLINE
  5
66
330
1E
100
AcDbEntity
  8
NOTE
  6
CONTINUOUS
 62
     4
100
AcDbPolyline
 90
        3
 70
     0
 43
0.0
 10
857.7224889999982
 20
178.786282999999
 10
836.9999999999985
 20
212.9999999999991
 10
872.0530609999988
 20
193.7312959999989
  0
LINE
  5
6B
330
1E
100
AcDbEntity
  8
NOTE
  6
CONTINUOUS
 62
     4
100
AcDbLine
 10
836.9999999999985
 20
192.9999999999991
 30
0.0
 11
836.9999999999985
 21
232.999999999999
 31
0.0
  0
LINE
  5
6C
330
1E
100
AcDbEntity
  8
DETAIL
  6
CONTINUOUS
 62
     5
100
AcDbLine
 10
836.999999999999
 20
237.9999999999985
 30
0.0
 11
836.9999999999985
 21
187.9999999999991
 31
0.0
  0
LINE
  5
6D
330
1E
100
AcDbEntity
  8
DETAIL
  6
CONTINUOUS
 62
     5
100
AcDbLine
 10
722.9999999999981
 20
59.49999999999909
 30
0.0
 11
752.9999999999985
 21
59.49999999999864
 31
0.0
  0
LINE
  5
6E
330
1E
100
AcDbEntity
  8
DETAIL
  6
CONTINUOUS
 62
     5
100
AcDbLine
 10
722.9999999999981
 20
84.49999999999906
 30
0.0
 11
752.9999999999985
 21
84.49999999999862
 31
0.0
  0
LINE
  5
6F
330
1E
100
AcDbEntity
  8
NOTE
  6
CONTINUOUS
 62
     4
100
AcDbLine
 10
772.9999999999985
 20
71.99999999999909
 30
0.0
 11
732.9999999999984
 21
71.99999999999909
 31
0.0
  0
LINE
  5
70
330
1E
100
AcDbEntity
  8
NOTE
  6
CONTINUOUS
 62
     4
100
AcDbLine
 10
752.9999999999985
 20
51.99999999999909
 30
0.0
 11
752.9999999999985
 21
91.99999999999908
 31
0.0
  0
LWPOLYLINE
  5
71
330
1E
100
AcDbEntity
  8
NOTE
  6
CONTINUOUS
 62
     4
100
AcDbPolyline
 90
        3
 70
     0
 43
0.0
 10
765.0894404365559
 20
33.87067547728337
 10
752.9999999999985
 20
71.99999999999909
 10
782.5344252917439
 20
45.0237566983551
  0
LINE
  5
76
330
1E
100
AcDbEntity
  8
DETAIL
  6
CONTINUOUS
 62
     5
100
AcDbLine
 10
722.9999999999985
 20
237.9999999999985
 30
0.0
 11
836.999999999999
 21
237.9999999999985
 31
0.0
  0
LINE
  5
77
330
1E
100
AcDbEntity
  8
DETAIL
  6
CONTINUOUS
 62
     5
100
AcDbLine
 10
752.9999999999985
 20
84.49999999999906
 30
0.0
 11
752.9999999999985
 21
59.49999999999909
 31
0.0
  0
CIRCLE
  5
78
330
1E
100
AcDbEntity
  8
FIX
  6
CONTINUOUS
 62
    11
100
AcDbCircle
 10
746.9999999999981
 20
147.9999999999994
 30
0.0
 40
20.0
  0
LINE
  5
79
330
1E
100
AcDbEntity
  8
NOTE
  6
CONTINUOUS
 62
     4
100
AcDbLine
 10
766.9999999999982
 20
147.9999999999994
 30
0.0
 11
726.9999999999981
 21
147.9999999999994
 31
0.0
  0
LINE
  5
7A
330
1E
100
AcDbEntity
  8
DETAIL
  6
CONTINUOUS
 62
     5
100
AcDbLine
 10
772.9999999999981
 20
147.9999999999994
 30
0.0
 11
722.9999999999981
 21
147.9999999999994
 31
0.0
  0
LINE
  5
7B
330
1E
100
AcDbEntity
  8
NOTE
  6
CONTINUOUS
 62
     4
100
AcDbLine
 10
746.9999999999981
 20
127.9999999999995
 30
0.0
 11
746.9999999999981
 21
167.9999999999994
 31
0.0
  0
LINE
  5
7C
330
1E
100
AcDbEntity
  8
NOTE
  6
CONTINUOUS
 62
     4
100
AcDbLine
 10
815.9999999999985
 20
215.9999999999994
 30
0.0
 11
775.9999999999985
 21
215.9999999999994
 31
0.0
  0
LINE
  5
7D
330
1E
100
AcDbEntity
  8
NOTE
  6
CONTINUOUS
 62
     4
100
AcDbLine
 10
795.9999999999985
 20
195.9999999999994
 30
0.0
 11
795.9999999999985
 21
235.9999999999994
 31
0.0
  0
LINE
  5
7E
330
1E
100
AcDbEntity
  8
NOTE
  6
CONTINUOUS
 62
     4
100
AcDbLine
 10
809.9999999999987
 20
215.9999999999994
 30
0.0
 11
769.9999999999985
 21
215.9999999999994
 31
0.0
  0
LINE
  5
7F
330
1E
100
AcDbEntity
  8
NOTE
  6
CONTINUOUS
 62
     4
100
AcDbLine
 10
789.9999999999985
 20
195.9999999999994
 30
0.0
 11
789.9999999999985
 21
235.9999999999994
 31
0.0
  0
LWPOLYLINE
  5
80
330
1E
100
AcDbEntity
  8
NOTE
  6
CONTINUOUS
 62
     4
100
AcDbPolyline
 90
        3
 70
     0
 43
0.0
 10
826.4872907671911
 20
232.3913885633436
 10
789.9999999999985
 20
215.9999999999994
 10
813.4032267379559
 20
248.4390040129801
  0
LWPOLYLINE
  5
85
330
1E
100
AcDbEntity
  8
NOTE
  6
CONTINUOUS
 62
     4
100
AcDbPolyline
 90
        3
 70
     0
 43
0.0
 10
813.2066891758826
 20
179.8900313014081
 10
795.9999999999985
 20
215.9999999999989
 10
828.9564139115325
 20
193.3311940682191
  0
LINE
  5
8A
330
1E
100
AcDbEntity
  8
DETAIL
  6
CONTINUOUS
 62
     5
100
AcDbLine
 10
722.9999999999985
 20
156.0799999999994
 30
0.0
 11
836.999999999999
 21
187.9999999999994
 31
0.0
  0
LINE
  5
8B
330
1E
100
AcDbEntity
  8
DETAIL
  6
CONTINUOUS
 62
     5
100
AcDbLine
 10
772.9999999999981
 20
147.9999999999994
 30
0.0
 11
772.9999999999981
 21
145.6999999999998
 31
0.0
  0
LWPOLYLINE
  5
8C
330
1E
100
AcDbEntity
  8
NOTE
  6
CONTINUOUS
 62
     4
100
AcDbPolyline
 90
        3
 70
     0
 43
0.0
 10
755.0006281124097
 20
301.9991628875327
 10
722.9999999999989
 20
277.999999999999
 10
738.7137755867816
 20
314.7841982622899
  0
LINE
  5
91
330
1E
100
AcDbEntity
  8
NOTE
  6
CONTINUOUS
 62
     4
100
AcDbLine
 10
1242.697765808149
 20
583.7848652465031
 30
0.0
 11
1673.055205808148
 21
583.7848652465031
 31
0.0
  0
LINE
  5
92
330
1E
100
AcDbEntity
  8
NOTE
  6
CONTINUOUS
 62
     4
100
AcDbLine
 10
1292.757627535492
 20
-367.5340543476385
 30
0.0
 11
1803.114707535492
 21
-367.5340543476385
 31
0.0
  0
TEXT
  5
93
330
1E
100
AcDbEntity
  8
NOTE
  6
CONTINUOUS
 62
     4
100
AcDbText
 10
1273.949018733137
 20
612.4116655426204
 30
0.0
 40
64.0
  1
RL %%c9.52
 41
0.9
100
AcDbText
  0
TEXT
  5
94
330
1E
100
AcDbEntity
  8
NOTE
  6
CONTINUOUS
 62
     4
100
AcDbText
 10
1327.459598026491
 20
-340.6585347506592
 30
0.0
 40
64.0
  1
RG %%c15.88
 41
0.9
100
AcDbText
  0
TEXT
  5
95
330
1E
100
AcDbEntity
  8
ETC
  6
CONTINUOUS
 62
    61
100
AcDbText
 10
561.5641032336425
 20
1252.054167374878
 30
0.0
 40
64.0
  1
PLFY-P80VLMD-E_5
 41
0.9
100
AcDbText
  0
LINE
  5
96
330
1E
100
AcDbEntity
  8
SERVICESPACE
  6
DASHDOT
 62
     2
100
AcDbLine
 10
-855.0
 20
-0.0000000000004547
 30
0.0
 11
-915.0
 21
-0.0000000000004547
 31
0.0
  0
LINE
  5
97
330
1E
100
AcDbEntity
  8
SERVICESPACE
  6
DASHDOT
 62
     2
100
AcDbLine
 10
-855.0
 20
19.99999999999954
 30
0.0
 11
-915.0
 21
19.99999999999954
 31
0.0
  0
LINE
  5
98
330
1E
100
AcDbEntity
  8
SERVICESPACE
  6
DASHDOT
 62
     2
100
AcDbLine
 10
-855.0
 20
19.99999999999954
 30
0.0
 11
-855.0
 21
-0.0000000000004547
 31
0.0
  0
LINE
  5
99
330
1E
100
AcDbEntity
  8
SERVICESPACE
  6
DASHDOT
 62
     2
100
AcDbLine
 10
914.9999999999996
 20
-0.0000000000004547
 30
0.0
 11
854.9999999999995
 21
-0.0000000000004547
 31
0.0
  0
LINE
  5
9A
330
1E
100
AcDbEntity
  8
SERVICESPACE
  6
DASHDOT
 62
     2
100
AcDbLine
 10
854.9999999999995
 20
19.99999999999954
 30
0.0
 11
854.9999999999995
 21
-0.0000000000004547
 31
0.0
  0
LINE
  5
9B
330
1E
100
AcDbEntity
  8
SERVICESPACE
  6
DASHDOT
 62
     2
100
AcDbLine
 10
914.9999999999996
 20
19.99999999999954
 30
0.0
 11
854.9999999999995
 21
19.99999999999954
 31
0.0
  0
LINE
  5
9C
330
1E
100
AcDbEntity
  8
NOTE
  6
CONTINUOUS
 62
     4
100
AcDbLine
 10
501.9999999999988
 20
283.9999999999994
 30
0.0
 11
501.9999999999988
 21
323.9999999999994
 31
0.0
  0
LINE
  5
9D
330
1E
100
AcDbEntity
  8
NOTE
  6
CONTINUOUS
 62
     4
100
AcDbLine
 10
521.9999999999989
 20
303.9999999999995
 30
0.0
 11
481.9999999999991
 21
303.9999999999995
 31
0.0
  0
LINE
  5
9E
330
1E
100
AcDbEntity
  8
NOTE
  6
CONTINUOUS
 62
     4
100
AcDbLine
 10
501.9999999999988
 20
124.9999999999995
 30
0.0
 11
501.9999999999988
 21
164.9999999999994
 31
0.0
  0
LINE
  5
9F
330
1E
100
AcDbEntity
  8
NOTE
  6
CONTINUOUS
 62
     4
100
AcDbLine
 10
521.9999999999989
 20
144.9999999999994
 30
0.0
 11
481.9999999999991
 21
144.9999999999994
 31
0.0
  0
LINE
  5
A0
330
1E
100
AcDbEntity
  8
NOTE
  6
CONTINUOUS
 62
     4
100
AcDbLine
 10
501.999999999998
 20
303.999999999998
 30
0.0
 11
931.4917744945788
 21
984.2995962983939
 31
0.0
  0
LWPOLYLINE
  5
A1
330
1E
100
AcDbEntity
  8
NOTE
  6
CONTINUOUS
 62
     4
100
AcDbPolyline
 90
        3
 70
     0
 43
0.0
 10
531.3089961925769
 20
331.2209987260357
 10
501.999999999998
 20
303.999999999998
 10
513.7718350300456
 20
342.2285738750097
  0
LINE
  5
A6
330
1E
100
AcDbEntity
  8
NOTE
  6
CONTINUOUS
 62
     4
100
AcDbLine
 10
722.9999999999985
 20
257.9999999999989
 30
0.0
 11
722.9999999999985
 21
297.999999999999
 31
0.0
  0
LINE
  5
A7
330
1E
100
AcDbEntity
  8
NOTE
  6
CONTINUOUS
 62
     4
100
AcDbLine
 10
742.9999999999985
 20
277.999999999999
 30
0.0
 11
702.9999999999985
 21
277.999999999999
 31
0.0
  0
LINE
  5
A8
330
1E
100
AcDbEntity
  8
DETAIL
  6
CONTINUOUS
 62
     5
100
AcDbLine
 10
501.9999999999985
 20
285.9999999999989
 30
0.0
 11
-252.0000000000013
 21
285.9999999999994
 31
0.0
  0
LINE
  5
A9
330
1E
100
AcDbEntity
  8
DETAIL
  6
CONTINUOUS
 62
     5
100
AcDbLine
 10
501.9999999999985
 20
175.999999999999
 30
0.0
 11
-252.0000000000013
 21
175.9999999999994
 31
0.0
  0
LINE
  5
AA
330
1E
100
AcDbEntity
  8
DETAIL
  6
CONTINUOUS
 62
     5
100
AcDbLine
 10
501.9999999999985
 20
285.9999999999989
 30
0.0
 11
501.9999999999985
 21
175.999999999999
 31
0.0
  0
LINE
  5
AB
330
1E
100
AcDbEntity
  8
DETAIL
  6
CONTINUOUS
 62
     5
100
AcDbLine
 10
772.9999999999981
 20
145.6999999999993
 30
0.0
 11
722.9999999999981
 21
145.6999999999993
 31
0.0
  0
LINE
  5
AC
330
1E
100
AcDbEntity
  8
DETAIL
  6
CONTINUOUS
 62
     5
100
AcDbLine
 10
-723.0
 20
145.6999999999993
 30
0.0
 11
-773.0
 21
145.6999999999993
 31
0.0
  0
LINE
  5
AD
330
1E
100
AcDbEntity
  8
SIZE
  6
CONTINUOUS
 62
    30
100
AcDbLine
 10
722.9999999999981
 20
357.9999999999994
 30
0.0
 11
722.9999999999981
 21
637.3869999999993
 31
0.0
  0
LINE
  5
AE
330
1E
100
AcDbEntity
  8
SIZE
  6
CONTINUOUS
 62
    30
100
AcDbLine
 10
501.9999999999988
 20
343.9999999999995
 30
0.0
 11
501.9999999999988
 21
637.3869999999993
 31
0.0
  0
LINE
  5
AF
330
1E
100
AcDbEntity
  8
SIZE
  6
CONTINUOUS
 62
    30
100
AcDbLine
 10
712.9999999999982
 20
607.3869999999992
 30
0.0
 11
511.9999999999991
 21
607.3869999999992
 31
0.0
  0
CIRCLE
  5
B0
330
1E
100
AcDbEntity
  8
SIZE
  6
CONTINUOUS
 62
    30
100
AcDbCircle
 10
722.9999999999981
 20
607.3869999999992
 30
0.0
 40
5.0
  0
LINE
  5
B1
330
1E
100
AcDbEntity
  8
SIZE
  6
CONTINUOUS
 62
    30
100
AcDbLine
 10
717.9999999999981
 20
607.3869999999992
 30
0.0
 11
712.9999999999982
 21
607.3869999999992
 31
0.0
  0
CIRCLE
  5
B2
330
1E
100
AcDbEntity
  8
SIZE
  6
CONTINUOUS
 62
    30
100
AcDbCircle
 10
501.9999999999988
 20
607.3869999999992
 30
0.0
 40
5.0
  0
LINE
  5
B3
330
1E
100
AcDbEntity
  8
SIZE
  6
CONTINUOUS
 62
    30
100
AcDbLine
 10
506.9999999999989
 20
607.3869999999992
 30
0.0
 11
511.9999999999989
 21
607.3869999999992
 31
0.0
  0
TEXT
  5
B4
330
1E
100
AcDbEntity
  8
SIZE
  6
CONTINUOUS
 62
    30
100
AcDbText
 10
545.3218968372335
 20
627.3869999999992
 30
0.0
 40
64.0
  1
221
 41
0.9
 72
     1
 11
607.0361825515192
 21
627.3869999999992
 31
0.0
100
AcDbText
  0
POINT
  5
B5
330
1E
100
AcDbEntity
  8
DEFPOINTS
  6
CONTINUOUS
 62
     7
100
AcDbPoint
 10
722.9999999999981
 20
337.9999999999995
 30
0.0
  0
POINT
  5
B6
330
1E
100
AcDbEntity
  8
DEFPOINTS
  6
CONTINUOUS
 62
     7
100
AcDbPoint
 10
501.9999999999988
 20
323.9999999999994
 30
0.0
  0
POINT
  5
B7
330
1E
100
AcDbEntity
  8
DEFPOINTS
  6
CONTINUOUS
 62
     7
100
AcDbPoint
 10
501.9999999999988
 20
607.3869999999992
 30
0.0
  0
LINE
  5
B8
330
1E
100
AcDbEntity
  8
SIZE
  6
CONTINUOUS
 62
    30
100
AcDbLine
 10
-855.0
 20
-20.00000000000044
 30
0.0
 11
-855.0
 21
-208.761564631879
 31
0.0
  0
LINE
  5
B9
330
1E
100
AcDbEntity
  8
SIZE
  6
CONTINUOUS
 62
    30
100
AcDbLine
 10
-875.0
 20
-21.00000000000044
 30
0.0
 11
-875.0
 21
-208.761564631879
 31
0.0
  0
LINE
  5
BA
330
1E
100
AcDbEntity
  8
SIZE
  6
CONTINUOUS
 62
    30
100
AcDbLine
 10
-845.0
 20
-178.761564631879
 30
0.0
 11
-835.0
 21
-178.761564631879
 31
0.0
  0
LINE
  5
BB
330
1E
100
AcDbEntity
  8
SIZE
  6
CONTINUOUS
 62
    30
100
AcDbLine
 10
-885.0
 20
-178.761564631879
 30
0.0
 11
-1028.257142857142
 21
-178.761564631879
 31
0.0
  0
LINE
  5
BC
330
1E
100
AcDbEntity
  8
SIZE
  6
CONTINUOUS
 62
    30
100
AcDbLine
 10
-855.0
 20
-178.761564631879
 30
0.0
 11
-875.0
 21
-178.761564631879
 31
0.0
  0
CIRCLE
  5
BD
330
1E
100
AcDbEntity
  8
SIZE
  6
CONTINUOUS
 62
    30
100
AcDbCircle
 10
-855.0
 20
-178.761564631879
 30
0.0
 40
5.0
  0
LINE
  5
BE
330
1E
100
AcDbEntity
  8
SIZE
  6
CONTINUOUS
 62
    30
100
AcDbLine
 10
-850.0
 20
-178.761564631879
 30
0.0
 11
-845.0
 21
-178.761564631879
 31
0.0
  0
CIRCLE
  5
BF
330
1E
100
AcDbEntity
  8
SIZE
  6
CONTINUOUS
 62
    30
100
AcDbCircle
 10
-875.0
 20
-178.761564631879
 30
0.0
 40
5.0
  0
LINE
  5
C0
330
1E
100
AcDbEntity
  8
SIZE
  6
CONTINUOUS
 62
    30
100
AcDbLine
 10
-880.0
 20
-178.761564631879
 30
0.0
 11
-885.0
 21
-178.761564631879
 31
0.0
  0
TEXT
  5
C1
330
1E
100
AcDbEntity
  8
SIZE
  6
CONTINUOUS
 62
    30
100
AcDbText
 10
-1008.257142857142
 20
-158.761564631879
 30
0.0
 40
64.0
  1
20
 41
0.9
 72
     1
 11
-961.6285714285712
 21
-158.761564631879
 31
0.0
100
AcDbText
  0
POINT
  5
C2
330
1E
100
AcDbEntity
  8
DEFPOINTS
  6
CONTINUOUS
 62
     7
100
AcDbPoint
 10
-855.0
 20
-0.0000000000004547
 30
0.0
  0
POINT
  5
C3
330
1E
100
AcDbEntity
  8
DEFPOINTS
  6
CONTINUOUS
 62
     7
100
AcDbPoint
 10
-875.0
 20
-1.000000000000454
 30
0.0
  0
POINT
  5
C4
330
1E
100
AcDbEntity
  8
DEFPOINTS
  6
CONTINUOUS
 62
     7
100
AcDbPoint
 10
-875.0
 20
-178.761564631879
 30
0.0
  0
LINE
  5
C5
330
1E
100
AcDbEntity
  8
SIZE
  6
CONTINUOUS
 62
    30
100
AcDbLine
 10
854.9999999999995
 20
-20.00000000000044
 30
0.0
 11
854.9999999999995
 21
-208.761564631879
 31
0.0
  0
LINE
  5
C6
330
1E
100
AcDbEntity
  8
SIZE
  6
CONTINUOUS
 62
    30
100
AcDbLine
 10
874.9999999999996
 20
-20.00000000000044
 30
0.0
 11
874.9999999999996
 21
-208.761564631879
 31
0.0
  0
LINE
  5
C7
330
1E
100
AcDbEntity
  8
SIZE
  6
CONTINUOUS
 62
    30
100
AcDbLine
 10
844.9999999999995
 20
-178.761564631879
 30
0.0
 11
834.9999999999996
 21
-178.761564631879
 31
0.0
  0
LINE
  5
C8
330
1E
100
AcDbEntity
  8
SIZE
  6
CONTINUOUS
 62
    30
100
AcDbLine
 10
884.9999999999996
 20
-178.761564631879
 30
0.0
 11
1028.257142857142
 21
-178.761564631879
 31
0.0
  0
LINE
  5
C9
330
1E
100
AcDbEntity
  8
SIZE
  6
CONTINUOUS
 62
    30
100
AcDbLine
 10
854.9999999999995
 20
-178.761564631879
 30
0.0
 11
874.9999999999996
 21
-178.761564631879
 31
0.0
  0
CIRCLE
  5
CA
330
1E
100
AcDbEntity
  8
SIZE
  6
CONTINUOUS
 62
    30
100
AcDbCircle
 10
854.9999999999995
 20
-178.761564631879
 30
0.0
 40
5.0
  0
LINE
  5
CB
330
1E
100
AcDbEntity
  8
SIZE
  6
CONTINUOUS
 62
    30
100
AcDbLine
 10
849.9999999999996
 20
-178.761564631879
 30
0.0
 11
844.9999999999995
 21
-178.761564631879
 31
0.0
  0
CIRCLE
  5
CC
330
1E
100
AcDbEntity
  8
SIZE
  6
CONTINUOUS
 62
    30
100
AcDbCircle
 10
874.9999999999996
 20
-178.761564631879
 30
0.0
 40
5.0
  0
LINE
  5
CD
330
1E
100
AcDbEntity
  8
SIZE
  6
CONTINUOUS
 62
    30
100
AcDbLine
 10
879.9999999999995
 20
-178.761564631879
 30
0.0
 11
884.9999999999996
 21
-178.761564631879
 31
0.0
  0
TEXT
  5
CE
330
1E
100
AcDbEntity
  8
SIZE
  6
CONTINUOUS
 62
    30
100
AcDbText
 10
914.9999999999995
 20
-158.761564631879
 30
0.0
 40
64.0
  1
20
 41
0.9
 72
     1
 11
961.6285714285707
 21
-158.761564631879
 31
0.0
100
AcDbText
  0
POINT
  5
CF
330
1E
100
AcDbEntity
  8
DEFPOINTS
  6
CONTINUOUS
 62
     7
100
AcDbPoint
 10
854.9999999999995
 20
-0.0000000000004547
 30
0.0
  0
POINT
  5
D0
330
1E
100
AcDbEntity
  8
DEFPOINTS
  6
CONTINUOUS
 62
     7
100
AcDbPoint
 10
874.9999999999996
 20
-0.0000000000004547
 30
0.0
  0
POINT
  5
D1
330
1E
100
AcDbEntity
  8
DEFPOINTS
  6
CONTINUOUS
 62
     7
100
AcDbPoint
 10
874.9999999999996
 20
-178.761564631879
 30
0.0
  0
LINE
  5
D2
330
1E
100
AcDbEntity
  8
SIZE
  6
CONTINUOUS
 62
    30
100
AcDbLine
 10
-747.0
 20
107.9999999999994
 30
0.0
 11
-747.0
 21
-626.4517531121874
 31
0.0
  0
LINE
  5
D3
330
1E
100
AcDbEntity
  8
SIZE
  6
CONTINUOUS
 62
    30
100
AcDbLine
 10
-855.0
 20
-20.00000000000044
 30
0.0
 11
-855.0
 21
-626.4517531121874
 31
0.0
  0
LINE
  5
D4
330
1E
100
AcDbEntity
  8
SIZE
  6
CONTINUOUS
 62
    30
100
AcDbLine
 10
-757.0
 20
-596.4517531121872
 30
0.0
 11
-845.0
 21
-596.4517531121872
 31
0.0
  0
LINE
  5
D5
330
1E
100
AcDbEntity
  8
SIZE
  6
CONTINUOUS
 62
    30
100
AcDbLine
 10
-855.0
 20
-596.4517531121872
 30
0.0
 11
-1042.142857142857
 21
-596.4517531121872
 31
0.0
  0
CIRCLE
  5
D6
330
1E
100
AcDbEntity
  8
SIZE
  6
CONTINUOUS
 62
    30
100
AcDbCircle
 10
-747.0
 20
-596.4517531121872
 30
0.0
 40
5.0
  0
LINE
  5
D7
330
1E
100
AcDbEntity
  8
SIZE
  6
CONTINUOUS
 62
    30
100
AcDbLine
 10
-752.0
 20
-596.4517531121872
 30
0.0
 11
-757.0
 21
-596.4517531121872
 31
0.0
  0
CIRCLE
  5
D8
330
1E
100
AcDbEntity
  8
SIZE
  6
CONTINUOUS
 62
    30
100
AcDbCircle
 10
-855.0
 20
-596.4517531121872
 30
0.0
 40
5.0
  0
LINE
  5
D9
330
1E
100
AcDbEntity
  8
SIZE
  6
CONTINUOUS
 62
    30
100
AcDbLine
 10
-850.0
 20
-596.4517531121872
 30
0.0
 11
-845.0
 21
-596.4517531121872
 31
0.0
  0
TEXT
  5
DA
330
1E
100
AcDbEntity
  8
SIZE
  6
CONTINUOUS
 62
    30
100
AcDbText
 10
-1022.142857142857
 20
-576.4517531121872
 30
0.0
 40
64.0
  1
108
 41
0.9
 72
     1
 11
-953.5714285714286
 21
-576.4517531121872
 31
0.0
100
AcDbText
  0
POINT
  5
DB
330
1E
100
AcDbEntity
  8
DEFPOINTS
  6
CONTINUOUS
 62
     7
100
AcDbPoint
 10
-747.0
 20
127.9999999999995
 30
0.0
  0
POINT
  5
DC
330
1E
100
AcDbEntity
  8
DEFPOINTS
  6
CONTINUOUS
 62
     7
100
AcDbPoint
 10
-855.0
 20
-0.0000000000004547
 30
0.0
  0
POINT
  5
DD
330
1E
100
AcDbEntity
  8
DEFPOINTS
  6
CONTINUOUS
 62
     7
100
AcDbPoint
 10
-855.0
 20
-596.4517531121872
 30
0.0
  0
LINE
  5
DE
330
1E
100
AcDbEntity
  8
SIZE
  6
CONTINUOUS
 62
    30
100
AcDbLine
 10
746.9999999999981
 20
107.9999999999994
 30
0.0
 11
746.9999999999981
 21
-626.4517531121874
 31
0.0
  0
LINE
  5
DF
330
1E
100
AcDbEntity
  8
SIZE
  6
CONTINUOUS
 62
    30
100
AcDbLine
 10
854.9999999999995
 20
-20.00000000000044
 30
0.0
 11
854.9999999999995
 21
-626.4517531121874
 31
0.0
  0
LINE
  5
E0
330
1E
100
AcDbEntity
  8
SIZE
  6
CONTINUOUS
 62
    30
100
AcDbLine
 10
756.9999999999981
 20
-596.4517531121872
 30
0.0
 11
844.9999999999995
 21
-596.4517531121872
 31
0.0
  0
LINE
  5
E1
330
1E
100
AcDbEntity
  8
SIZE
  6
CONTINUOUS
 62
    30
100
AcDbLine
 10
854.9999999999995
 20
-596.4517531121872
 30
0.0
 11
1042.142857142857
 21
-596.4517531121872
 31
0.0
  0
CIRCLE
  5
E2
330
1E
100
AcDbEntity
  8
SIZE
  6
CONTINUOUS
 62
    30
100
AcDbCircle
 10
746.9999999999981
 20
-596.4517531121872
 30
0.0
 40
5.0
  0
LINE
  5
E3
330
1E
100
AcDbEntity
  8
SIZE
  6
CONTINUOUS
 62
    30
100
AcDbLine
 10
751.9999999999981
 20
-596.4517531121872
 30
0.0
 11
756.9999999999981
 21
-596.4517531121872
 31
0.0
  0
CIRCLE
  5
E4
330
1E
100
AcDbEntity
  8
SIZE
  6
CONTINUOUS
 62
    30
100
AcDbCircle
 10
854.9999999999995
 20
-596.4517531121872
 30
0.0
 40
5.0
  0
LINE
  5
E5
330
1E
100
AcDbEntity
  8
SIZE
  6
CONTINUOUS
 62
    30
100
AcDbLine
 10
849.9999999999996
 20
-596.4517531121872
 30
0.0
 11
844.9999999999995
 21
-596.4517531121872
 31
0.0
  0
TEXT
  5
E6
330
1E
100
AcDbEntity
  8
SIZE
  6
CONTINUOUS
 62
    30
100
AcDbText
 10
885.0
 20
-576.4517531121872
 30
0.0
 40
64.0
  1
108
 41
0.9
 72
     1
 11
953.5714285714286
 21
-576.4517531121872
 31
0.0
100
AcDbText
  0
POINT
  5
E7
330
1E
100
AcDbEntity
  8
DEFPOINTS
  6
CONTINUOUS
 62
     7
100
AcDbPoint
 10
746.9999999999981
 20
127.9999999999995
 30
0.0
  0
POINT
  5
E8
330
1E
100
AcDbEntity
  8
DEFPOINTS
  6
CONTINUOUS
 62
     7
100
AcDbPoint
 10
854.9999999999995
 20
-0.0000000000004547
 30
0.0
  0
POINT
  5
E9
330
1E
100
AcDbEntity
  8
DEFPOINTS
  6
CONTINUOUS
 62
     7
100
AcDbPoint
 10
854.9999999999995
 20
-596.4517531121872
 30
0.0
  0
TEXT
  5
EA
330
1E
100
AcDbEntity
  8
NOTE
  6
CONTINUOUS
 62
     4
100
AcDbText
 10
-339.9471710542789
 20
-280.6877366781455
 30
0.0
 40
64.0
  1
(Ceiling opening)
 41
0.9
100
AcDbText
  0
TEXT
  5
EB
330
1E
100
AcDbEntity
  8
NOTE
  6
CONTINUOUS
 62
     4
100
AcDbText
 10
-385.8697897263176
 20
-715.5009048837463
 30
0.0
 40
64.0
  1
(Lifting bolt pitch)
 41
0.9
100
AcDbText
  0
LINE
  5
EC
330
1E
100
AcDbEntity
  8
SIZE
  6
CONTINUOUS
 62
    30
100
AcDbLine
 10
-863.0
 20
44.99999999999954
 30
0.0
 11
-1199.387403242039
 21
44.99999999999963
 31
0.0
  0
LINE
  5
ED
330
1E
100
AcDbEntity
  8
SIZE
  6
CONTINUOUS
 62
    30
100
AcDbLine
 10
-935.0
 20
-0.0000000000004491
 30
0.0
 11
-1199.387403242039
 21
-0.0000000000003742
 31
0.0
  0
LINE
  5
EE
330
1E
100
AcDbEntity
  8
SIZE
  6
CONTINUOUS
 62
    30
100
AcDbLine
 10
-1169.387403242039
 20
54.99999999999964
 30
0.0
 11
-1169.387403242039
 21
64.99999999999963
 31
0.0
  0
LINE
  5
EF
330
1E
100
AcDbEntity
  8
SIZE
  6
CONTINUOUS
 62
    30
100
AcDbLine
 10
-1169.387403242039
 20
-10.00000000000037
 30
0.0
 11
-1169.387403242039
 21
-153.2571428571434
 31
0.0
  0
LINE
  5
F0
330
1E
100
AcDbEntity
  8
SIZE
  6
CONTINUOUS
 62
    30
100
AcDbLine
 10
-1169.387403242039
 20
44.99999999999963
 30
0.0
 11
-1169.387403242039
 21
-0.0000000000003827
 31
0.0
  0
CIRCLE
  5
F1
330
1E
100
AcDbEntity
  8
SIZE
  6
CONTINUOUS
 62
    30
100
AcDbCircle
 10
-1169.387403242039
 20
44.99999999999963
 30
0.0
 40
5.0
  0
LINE
  5
F2
330
1E
100
AcDbEntity
  8
SIZE
  6
CONTINUOUS
 62
    30
100
AcDbLine
 10
-1169.387403242039
 20
49.99999999999964
 30
0.0
 11
-1169.387403242039
 21
54.99999999999964
 31
0.0
  0
CIRCLE
  5
F3
330
1E
100
AcDbEntity
  8
SIZE
  6
CONTINUOUS
 62
    30
100
AcDbCircle
 10
-1169.387403242039
 20
-0.0000000000003827
 30
0.0
 40
5.0
  0
LINE
  5
F4
330
1E
100
AcDbEntity
  8
SIZE
  6
CONTINUOUS
 62
    30
100
AcDbLine
 10
-1169.387403242039
 20
-5.000000000000382
 30
0.0
 11
-1169.387403242039
 21
-10.00000000000038
 31
0.0
  0
TEXT
  5
F5
330
1E
100
AcDbEntity
  8
SIZE
  6
CONTINUOUS
 62
    30
100
AcDbText
 10
-1189.387403242039
 20
-133.2571428571437
 30
0.0
 40
64.0
  1
45
 50
90.0
 41
0.9
 72
     1
 11
-1189.387403242039
 21
-86.62857142857228
 31
0.0
100
AcDbText
  0
POINT
  5
F6
330
1E
100
AcDbEntity
  8
DEFPOINTS
  6
CONTINUOUS
 62
     7
100
AcDbPoint
 10
-843.0
 20
44.99999999999952
 30
0.0
  0
POINT
  5
F7
330
1E
100
AcDbEntity
  8
DEFPOINTS
  6
CONTINUOUS
 62
     7
100
AcDbPoint
 10
-915.0
 20
-0.0000000000004547
 30
0.0
  0
POINT
  5
F8
330
1E
100
AcDbEntity
  8
DEFPOINTS
  6
CONTINUOUS
 62
     7
100
AcDbPoint
 10
-1169.387403242039
 20
-0.0000000000003827
 30
0.0
  0
LINE
  5
F9
330
1E
100
AcDbEntity
  8
SIZE
  6
CONTINUOUS
 62
    30
100
AcDbLine
 10
742.9999999999981
 20
337.9999999999995
 30
0.0
 11
1059.687328592981
 21
337.9999999999995
 31
0.0
  0
LINE
  5
FA
330
1E
100
AcDbEntity
  8
SIZE
  6
CONTINUOUS
 62
    30
100
AcDbLine
 10
762.9999999999985
 20
277.999999999999
 30
0.0
 11
1059.687328592981
 21
277.999999999999
 31
0.0
  0
LINE
  5
FB
330
1E
100
AcDbEntity
  8
SIZE
  6
CONTINUOUS
 62
    30
100
AcDbLine
 10
1029.687328592981
 20
327.9999999999994
 30
0.0
 11
1029.687328592981
 21
287.9999999999989
 31
0.0
  0
CIRCLE
  5
FC
330
1E
100
AcDbEntity
  8
SIZE
  6
CONTINUOUS
 62
    30
100
AcDbCircle
 10
1029.687328592981
 20
337.9999999999995
 30
0.0
 40
5.0
  0
LINE
  5
FD
330
1E
100
AcDbEntity
  8
SIZE
  6
CONTINUOUS
 62
    30
100
AcDbLine
 10
1029.687328592981
 20
332.9999999999994
 30
0.0
 11
1029.687328592981
 21
327.9999999999994
 31
0.0
  0
CIRCLE
  5
FE
330
1E
100
AcDbEntity
  8
SIZE
  6
CONTINUOUS
 62
    30
100
AcDbCircle
 10
1029.687328592981
 20
277.999999999999
 30
0.0
 40
5.0
  0
LINE
  5
FF
330
1E
100
AcDbEntity
  8
SIZE
  6
CONTINUOUS
 62
    30
100
AcDbLine
 10
1029.687328592981
 20
282.9999999999989
 30
0.0
 11
1029.687328592981
 21
287.9999999999989
 31
0.0
  0
TEXT
  5
100
330
1E
100
AcDbEntity
  8
SIZE
  6
CONTINUOUS
 62
    30
100
AcDbText
 10
1009.687328592981
 20
261.3714285714279
 30
0.0
 40
64.0
  1
60
 50
90.0
 41
0.9
 72
     1
 11
1009.687328592981
 21
307.9999999999993
 31
0.0
100
AcDbText
  0
POINT
  5
101
330
1E
100
AcDbEntity
  8
DEFPOINTS
  6
CONTINUOUS
 62
     7
100
AcDbPoint
 10
722.9999999999981
 20
337.9999999999995
 30
0.0
  0
POINT
  5
102
330
1E
100
AcDbEntity
  8
DEFPOINTS
  6
CONTINUOUS
 62
     7
100
AcDbPoint
 10
742.9999999999985
 20
277.999999999999
 30
0.0
  0
POINT
  5
103
330
1E
100
AcDbEntity
  8
DEFPOINTS
  6
CONTINUOUS
 62
     7
100
AcDbPoint
 10
1029.687328592981
 20
277.999999999999
 30
0.0
  0
LINE
  5
104
330
1E
100
AcDbEntity
  8
SIZE
  6
CONTINUOUS
 62
    30
100
AcDbLine
 10
742.9999999999985
 20
337.9999999999995
 30
0.0
 11
1180.343865977864
 21
337.9999999999993
 31
0.0
  0
LINE
  5
105
330
1E
100
AcDbEntity
  8
SIZE
  6
CONTINUOUS
 62
    30
100
AcDbLine
 10
835.9999999999985
 20
215.9999999999994
 30
0.0
 11
1180.343865977864
 21
215.9999999999993
 31
0.0
  0
LINE
  5
106
330
1E
100
AcDbEntity
  8
SIZE
  6
CONTINUOUS
 62
    30
100
AcDbLine
 10
1150.343865977863
 20
327.9999999999994
 30
0.0
 11
1150.343865977863
 21
225.9999999999994
 31
0.0
  0
CIRCLE
  5
107
330
1E
100
AcDbEntity
  8
SIZE
  6
CONTINUOUS
 62
    30
100
AcDbCircle
 10
1150.343865977863
 20
337.9999999999995
 30
0.0
 40
5.0
  0
LINE
  5
108
330
1E
100
AcDbEntity
  8
SIZE
  6
CONTINUOUS
 62
    30
100
AcDbLine
 10
1150.343865977863
 20
332.9999999999994
 30
0.0
 11
1150.343865977863
 21
327.9999999999994
 31
0.0
  0
CIRCLE
  5
109
330
1E
100
AcDbEntity
  8
SIZE
  6
CONTINUOUS
 62
    30
100
AcDbCircle
 10
1150.343865977863
 20
215.9999999999993
 30
0.0
 40
5.0
  0
LINE
  5
10A
330
1E
100
AcDbEntity
  8
SIZE
  6
CONTINUOUS
 62
    30
100
AcDbLine
 10
1150.343865977863
 20
220.9999999999994
 30
0.0
 11
1150.343865977863
 21
225.9999999999994
 31
0.0
  0
TEXT
  5
10B
330
1E
100
AcDbEntity
  8
SIZE
  6
CONTINUOUS
 62
    30
100
AcDbText
 10
1130.343865977864
 20
208.428571428571
 30
0.0
 40
64.0
  1
122
 50
90.0
 41
0.9
 72
     1
 11
1130.343865977864
 21
276.9999999999996
 31
0.0
100
AcDbText
  0
POINT
  5
10C
330
1E
100
AcDbEntity
  8
DEFPOINTS
  6
CONTINUOUS
 62
     7
100
AcDbPoint
 10
722.9999999999985
 20
337.9999999999995
 30
0.0
  0
POINT
  5
10D
330
1E
100
AcDbEntity
  8
DEFPOINTS
  6
CONTINUOUS
 62
     7
100
AcDbPoint
 10
815.9999999999985
 20
215.9999999999994
 30
0.0
  0
POINT
  5
10E
330
1E
100
AcDbEntity
  8
DEFPOINTS
  6
CONTINUOUS
 62
     7
100
AcDbPoint
 10
1150.343865977863
 20
215.9999999999993
 30
0.0
  0
LINE
  5
10F
330
1E
100
AcDbEntity
  8
SIZE
  6
CONTINUOUS
 62
    30
100
AcDbLine
 10
742.9999999999985
 20
337.9999999999995
 30
0.0
 11
1288.625368020738
 21
337.9999999999992
 31
0.0
  0
LINE
  5
110
330
1E
100
AcDbEntity
  8
SIZE
  6
CONTINUOUS
 62
    30
100
AcDbLine
 10
876.9999999999987
 20
212.9999999999991
 30
0.0
 11
1288.625368020738
 21
212.9999999999988
 31
0.0
  0
LINE
  5
111
330
1E
100
AcDbEntity
  8
SIZE
  6
CONTINUOUS
 62
    30
100
AcDbLine
 10
1258.625368020739
 20
327.9999999999994
 30
0.0
 11
1258.625368020739
 21
222.9999999999988
 31
0.0
  0
CIRCLE
  5
112
330
1E
100
AcDbEntity
  8
SIZE
  6
CONTINUOUS
 62
    30
100
AcDbCircle
 10
1258.625368020739
 20
337.9999999999992
 30
0.0
 40
5.0
  0
LINE
  5
113
330
1E
100
AcDbEntity
  8
SIZE
  6
CONTINUOUS
 62
    30
100
AcDbLine
 10
1258.625368020739
 20
332.9999999999992
 30
0.0
 11
1258.625368020739
 21
327.9999999999992
 31
0.0
  0
CIRCLE
  5
114
330
1E
100
AcDbEntity
  8
SIZE
  6
CONTINUOUS
 62
    30
100
AcDbCircle
 10
1258.625368020739
 20
212.9999999999988
 30
0.0
 40
5.0
  0
LINE
  5
115
330
1E
100
AcDbEntity
  8
SIZE
  6
CONTINUOUS
 62
    30
100
AcDbLine
 10
1258.625368020739
 20
217.9999999999989
 30
0.0
 11
1258.625368020739
 21
222.9999999999988
 31
0.0
  0
TEXT
  5
116
330
1E
100
AcDbEntity
  8
SIZE
  6
CONTINUOUS
 62
    30
100
AcDbText
 10
1238.625368020739
 20
206.9285714285707
 30
0.0
 40
64.0
  1
125
 50
90.0
 41
0.9
 72
     1
 11
1238.625368020739
 21
275.4999999999992
 31
0.0
100
AcDbText
  0
POINT
  5
117
330
1E
100
AcDbEntity
  8
DEFPOINTS
  6
CONTINUOUS
 62
     7
100
AcDbPoint
 10
722.9999999999985
 20
337.9999999999995
 30
0.0
  0
POINT
  5
118
330
1E
100
AcDbEntity
  8
DEFPOINTS
  6
CONTINUOUS
 62
     7
100
AcDbPoint
 10
856.9999999999986
 20
212.9999999999991
 30
0.0
  0
POINT
  5
119
330
1E
100
AcDbEntity
  8
DEFPOINTS
  6
CONTINUOUS
 62
     7
100
AcDbPoint
 10
1258.625368020739
 20
212.9999999999988
 30
0.0
  0
LINE
  5
11A
330
1E
100
AcDbEntity
  8
SIZE
  6
CONTINUOUS
 62
    30
100
AcDbLine
 10
742.9999999999985
 20
337.9999999999995
 30
0.0
 11
1422.172910418264
 21
337.9999999999992
 31
0.0
  0
LINE
  5
11B
330
1E
100
AcDbEntity
  8
SIZE
  6
CONTINUOUS
 62
    30
100
AcDbLine
 10
792.9999999999985
 20
71.99999999999909
 30
0.0
 11
1422.172910418264
 21
71.9999999999989
 31
0.0
  0
LINE
  5
11C
330
1E
100
AcDbEntity
  8
SIZE
  6
CONTINUOUS
 62
    30
100
AcDbLine
 10
1392.172910418265
 20
327.9999999999994
 30
0.0
 11
1392.172910418265
 21
81.9999999999989
 31
0.0
  0
CIRCLE
  5
11D
330
1E
100
AcDbEntity
  8
SIZE
  6
CONTINUOUS
 62
    30
100
AcDbCircle
 10
1392.172910418265
 20
337.9999999999992
 30
0.0
 40
5.0
  0
LINE
  5
11E
330
1E
100
AcDbEntity
  8
SIZE
  6
CONTINUOUS
 62
    30
100
AcDbLine
 10
1392.172910418265
 20
332.9999999999992
 30
0.0
 11
1392.172910418265
 21
327.9999999999992
 31
0.0
  0
CIRCLE
  5
11F
330
1E
100
AcDbEntity
  8
SIZE
  6
CONTINUOUS
 62
    30
100
AcDbCircle
 10
1392.172910418265
 20
71.9999999999989
 30
0.0
 40
5.0
  0
LINE
  5
120
330
1E
100
AcDbEntity
  8
SIZE
  6
CONTINUOUS
 62
    30
100
AcDbLine
 10
1392.172910418265
 20
76.9999999999989
 30
0.0
 11
1392.172910418265
 21
81.9999999999989
 31
0.0
  0
TEXT
  5
121
330
1E
100
AcDbEntity
  8
SIZE
  6
CONTINUOUS
 62
    30
100
AcDbText
 10
1372.172910418265
 20
127.3395914809725
 30
0.0
 40
64.0
  1
266
 50
90.0
 41
0.9
 72
     1
 11
1372.172910418265
 21
200.0253057666868
 31
0.0
100
AcDbText
  0
POINT
  5
122
330
1E
100
AcDbEntity
  8
DEFPOINTS
  6
CONTINUOUS
 62
     7
100
AcDbPoint
 10
722.9999999999985
 20
337.9999999999995
 30
0.0
  0
POINT
  5
123
330
1E
100
AcDbEntity
  8
DEFPOINTS
  6
CONTINUOUS
 62
     7
100
AcDbPoint
 10
772.9999999999985
 20
71.99999999999909
 30
0.0
  0
POINT
  5
124
330
1E
100
AcDbEntity
  8
DEFPOINTS
  6
CONTINUOUS
 62
     7
100
AcDbPoint
 10
1392.172910418265
 20
71.9999999999989
 30
0.0
  0
LINE
  5
125
330
1E
100
AcDbEntity
  8
SIZE
  6
CONTINUOUS
 62
    30
100
AcDbLine
 10
702.9999999999985
 20
337.999999999999
 30
0.0
 11
624.5265561297911
 21
337.999999999999
 31
0.0
  0
LINE
  5
126
330
1E
100
AcDbEntity
  8
SIZE
  6
CONTINUOUS
 62
    30
100
AcDbLine
 10
541.9999999999991
 20
303.9999999999995
 30
0.0
 11
684.526556129791
 21
303.9999999999995
 31
0.0
  0
LINE
  5
127
330
1E
100
AcDbEntity
  8
SIZE
  6
CONTINUOUS
 62
    30
100
AcDbLine
 10
654.526556129791
 20
293.9999999999995
 30
0.0
 11
654.526556129791
 21
283.9999999999993
 31
0.0
  0
LINE
  5
128
330
1E
100
AcDbEntity
  8
SIZE
  6
CONTINUOUS
 62
    30
100
AcDbLine
 10
654.526556129791
 20
347.9999999999991
 30
0.0
 11
654.526556129791
 21
493.9999999999989
 31
0.0
  0
LINE
  5
129
330
1E
100
AcDbEntity
  8
SIZE
  6
CONTINUOUS
 62
    30
100
AcDbLine
 10
654.526556129791
 20
303.9999999999995
 30
0.0
 11
654.526556129791
 21
337.999999999999
 31
0.0
  0
CIRCLE
  5
12A
330
1E
100
AcDbEntity
  8
SIZE
  6
CONTINUOUS
 62
    30
100
AcDbCircle
 10
654.526556129791
 20
303.9999999999995
 30
0.0
 40
5.0
  0
LINE
  5
12B
330
1E
100
AcDbEntity
  8
SIZE
  6
CONTINUOUS
 62
    30
100
AcDbLine
 10
654.526556129791
 20
298.9999999999994
 30
0.0
 11
654.526556129791
 21
293.9999999999995
 31
0.0
  0
CIRCLE
  5
12C
330
1E
100
AcDbEntity
  8
SIZE
  6
CONTINUOUS
 62
    30
100
AcDbCircle
 10
654.526556129791
 20
337.999999999999
 30
0.0
 40
5.0
  0
LINE
  5
12D
330
1E
100
AcDbEntity
  8
SIZE
  6
CONTINUOUS
 62
    30
100
AcDbLine
 10
654.526556129791
 20
342.999999999999
 30
0.0
 11
654.526556129791
 21
347.9999999999991
 31
0.0
  0
TEXT
  5
12E
330
1E
100
AcDbEntity
  8
SIZE
  6
CONTINUOUS
 62
    30
100
AcDbText
 10
634.526556129791
 20
377.9999999999991
 30
0.0
 40
64.0
  1
34
 50
90.0
 41
0.9
 72
     1
 11
634.526556129791
 21
425.9999999999991
 31
0.0
100
AcDbText
  0
POINT
  5
12F
330
1E
100
AcDbEntity
  8
DEFPOINTS
  6
CONTINUOUS
 62
     7
100
AcDbPoint
 10
722.9999999999985
 20
337.999999999999
 30
0.0
  0
POINT
  5
130
330
1E
100
AcDbEntity
  8
DEFPOINTS
  6
CONTINUOUS
 62
     7
100
AcDbPoint
 10
521.9999999999989
 20
303.9999999999995
 30
0.0
  0
POINT
  5
131
330
1E
100
AcDbEntity
  8
DEFPOINTS
  6
CONTINUOUS
 62
     7
100
AcDbPoint
 10
654.526556129791
 20
303.9999999999995
 30
0.0
  0
LINE
  5
132
330
1E
100
AcDbEntity
  8
SIZE
  6
CONTINUOUS
 62
    30
100
AcDbLine
 10
541.9999999999991
 20
303.9999999999995
 30
0.0
 11
684.526556129791
 21
303.9999999999995
 31
0.0
  0
LINE
  5
133
330
1E
100
AcDbEntity
  8
SIZE
  6
CONTINUOUS
 62
    30
100
AcDbLine
 10
541.9999999999991
 20
144.9999999999994
 30
0.0
 11
684.526556129791
 21
144.9999999999994
 31
0.0
  0
LINE
  5
134
330
1E
100
AcDbEntity
  8
SIZE
  6
CONTINUOUS
 62
    30
100
AcDbLine
 10
654.526556129791
 20
313.9999999999993
 30
0.0
 11
654.526556129791
 21
323.9999999999993
 31
0.0
  0
LINE
  5
135
330
1E
100
AcDbEntity
  8
SIZE
  6
CONTINUOUS
 62
    30
100
AcDbLine
 10
654.526556129791
 20
134.9999999999994
 30
0.0
 11
654.526556129791
 21
124.9999999999995
 31
0.0
  0
LINE
  5
136
330
1E
100
AcDbEntity
  8
SIZE
  6
CONTINUOUS
 62
    30
100
AcDbLine
 10
654.526556129791
 20
303.9999999999995
 30
0.0
 11
654.526556129791
 21
144.9999999999994
 31
0.0
  0
CIRCLE
  5
137
330
1E
100
AcDbEntity
  8
SIZE
  6
CONTINUOUS
 62
    30
100
AcDbCircle
 10
654.526556129791
 20
303.9999999999995
 30
0.0
 40
5.0
  0
LINE
  5
138
330
1E
100
AcDbEntity
  8
SIZE
  6
CONTINUOUS
 62
    30
100
AcDbLine
 10
654.526556129791
 20
308.9999999999994
 30
0.0
 11
654.526556129791
 21
313.9999999999994
 31
0.0
  0
CIRCLE
  5
139
330
1E
100
AcDbEntity
  8
SIZE
  6
CONTINUOUS
 62
    30
100
AcDbCircle
 10
654.526556129791
 20
144.9999999999994
 30
0.0
 40
5.0
  0
LINE
  5
13A
330
1E
100
AcDbEntity
  8
SIZE
  6
CONTINUOUS
 62
    30
100
AcDbLine
 10
654.526556129791
 20
139.9999999999994
 30
0.0
 11
654.526556129791
 21
134.9999999999994
 31
0.0
  0
TEXT
  5
13B
330
1E
100
AcDbEntity
  8
SIZE
  6
CONTINUOUS
 62
    30
100
AcDbText
 10
634.526556129791
 20
157.2999999999995
 30
0.0
 40
64.0
  1
159
 50
90.0
 41
0.9
 72
     1
 11
634.526556129791
 21
224.4999999999995
 31
0.0
100
AcDbText
  0
POINT
  5
13C
330
1E
100
AcDbEntity
  8
DEFPOINTS
  6
CONTINUOUS
 62
     7
100
AcDbPoint
 10
521.9999999999989
 20
303.9999999999995
 30
0.0
  0
POINT
  5
13D
330
1E
100
AcDbEntity
  8
DEFPOINTS
  6
CONTINUOUS
 62
     7
100
AcDbPoint
 10
521.9999999999989
 20
144.9999999999994
 30
0.0
  0
POINT
  5
13E
330
1E
100
AcDbEntity
  8
DEFPOINTS
  6
CONTINUOUS
 62
     7
100
AcDbPoint
 10
654.526556129791
 20
144.9999999999994
 30
0.0
  0
TEXT
  5
13F
330
1E
100
AcDbEntity
  8
NOTE
  6
CONTINUOUS
 62
     4
100
AcDbText
 10
975.1539661699762
 20
1004.734961046062
 30
0.0
 40
64.0
  1
10-%%c2.9
 41
0.9
100
AcDbText
  0
LINE
  5
140
330
1E
100
AcDbEntity
  8
NOTE
  6
CONTINUOUS
 62
     4
100
AcDbLine
 10
931.4917744945788
 20
984.2995962983939
 30
0.0
 11
1377.751969494577
 21
984.2995962983939
 31
0.0
  0
TEXT
  5
141
330
1E
100
AcDbEntity
  8
NOTE
  6
CONTINUOUS
 62
     4
100
AcDbText
 10
-1563.474654090198
 20
619.4407348637449
 30
0.0
 40
64.0
  1
AH 4-14X30
 41
0.9
100
AcDbText
  0
LINE
  5
142
330
1E
100
AcDbEntity
  8
NOTE
  6
CONTINUOUS
 62
     4
100
AcDbLine
 10
-1627.827487815826
 20
586.374426736013
 30
0.0
 11
-961.5672928158263
 21
586.374426736013
 31
0.0
  0
LINE
  5
143
330
1E
100
AcDbEntity
  8
SIZE
  6
CONTINUOUS
 62
    30
100
AcDbLine
 10
722.9999999999985
 20
357.9999999999991
 30
0.0
 11
722.9999999999985
 21
456.1000073814484
 31
0.0
  0
LINE
  5
144
330
1E
100
AcDbEntity
  8
SIZE
  6
CONTINUOUS
 62
    30
100
AcDbLine
 10
789.9999999999985
 20
255.9999999999994
 30
0.0
 11
789.9999999999985
 21
456.1000073814484
 31
0.0
  0
LINE
  5
145
330
1E
100
AcDbEntity
  8
SIZE
  6
CONTINUOUS
 62
    30
100
AcDbLine
 10
732.9999999999984
 20
426.1000073814484
 30
0.0
 11
779.9999999999985
 21
426.1000073814484
 31
0.0
  0
LINE
  5
146
330
1E
100
AcDbEntity
  8
SIZE
  6
CONTINUOUS
 62
    30
100
AcDbLine
 10
789.9999999999985
 20
426.1000073814484
 30
0.0
 11
933.2571428571412
 21
426.1000073814484
 31
0.0
  0
CIRCLE
  5
147
330
1E
100
AcDbEntity
  8
SIZE
  6
CONTINUOUS
 62
    30
100
AcDbCircle
 10
722.9999999999985
 20
426.1000073814484
 30
0.0
 40
5.0
  0
LINE
  5
148
330
1E
100
AcDbEntity
  8
SIZE
  6
CONTINUOUS
 62
    30
100
AcDbLine
 10
727.9999999999985
 20
426.1000073814484
 30
0.0
 11
732.9999999999984
 21
426.1000073814484
 31
0.0
  0
CIRCLE
  5
149
330
1E
100
AcDbEntity
  8
SIZE
  6
CONTINUOUS
 62
    30
100
AcDbCircle
 10
789.9999999999985
 20
426.1000073814484
 30
0.0
 40
5.0
  0
LINE
  5
14A
330
1E
100
AcDbEntity
  8
SIZE
  6
CONTINUOUS
 62
    30
100
AcDbLine
 10
784.9999999999985
 20
426.1000073814484
 30
0.0
 11
779.9999999999985
 21
426.1000073814484
 31
0.0
  0
TEXT
  5
14B
330
1E
100
AcDbEntity
  8
SIZE
  6
CONTINUOUS
 62
    30
100
AcDbText
 10
819.9999999999986
 20
446.1000073814483
 30
0.0
 40
64.0
  1
67
 41
0.9
 72
     1
 11
866.6285714285701
 21
446.1000073814483
 31
0.0
100
AcDbText
  0
POINT
  5
14C
330
1E
100
AcDbEntity
  8
DEFPOINTS
  6
CONTINUOUS
 62
     7
100
AcDbPoint
 10
722.9999999999985
 20
337.999999999999
 30
0.0
  0
POINT
  5
14D
330
1E
100
AcDbEntity
  8
DEFPOINTS
  6
CONTINUOUS
 62
     7
100
AcDbPoint
 10
789.9999999999985
 20
235.9999999999994
 30
0.0
  0
POINT
  5
14E
330
1E
100
AcDbEntity
  8
DEFPOINTS
  6
CONTINUOUS
 62
     7
100
AcDbPoint
 10
789.9999999999985
 20
426.1000073814484
 30
0.0
  0
LINE
  5
14F
330
1E
100
AcDbEntity
  8
SIZE
  6
CONTINUOUS
 62
    30
100
AcDbLine
 10
722.9999999999981
 20
357.9999999999994
 30
0.0
 11
722.9999999999981
 21
569.407168675838
 31
0.0
  0
LINE
  5
150
330
1E
100
AcDbEntity
  8
SIZE
  6
CONTINUOUS
 62
    30
100
AcDbLine
 10
795.9999999999985
 20
255.9999999999994
 30
0.0
 11
795.9999999999985
 21
569.407168675838
 31
0.0
  0
LINE
  5
151
330
1E
100
AcDbEntity
  8
SIZE
  6
CONTINUOUS
 62
    30
100
AcDbLine
 10
732.9999999999982
 20
539.4071686758377
 30
0.0
 11
785.9999999999985
 21
539.4071686758377
 31
0.0
  0
LINE
  5
152
330
1E
100
AcDbEntity
  8
SIZE
  6
CONTINUOUS
 62
    30
100
AcDbLine
 10
795.9999999999985
 20
539.4071686758377
 30
0.0
 11
939.2571428571416
 21
539.4071686758377
 31
0.0
  0
CIRCLE
  5
153
330
1E
100
AcDbEntity
  8
SIZE
  6
CONTINUOUS
 62
    30
100
AcDbCircle
 10
722.9999999999981
 20
539.4071686758377
 30
0.0
 40
5.0
  0
LINE
  5
154
330
1E
100
AcDbEntity
  8
SIZE
  6
CONTINUOUS
 62
    30
100
AcDbLine
 10
727.9999999999981
 20
539.4071686758377
 30
0.0
 11
732.9999999999982
 21
539.4071686758377
 31
0.0
  0
CIRCLE
  5
155
330
1E
100
AcDbEntity
  8
SIZE
  6
CONTINUOUS
 62
    30
100
AcDbCircle
 10
795.9999999999985
 20
539.4071686758377
 30
0.0
 40
5.0
  0
LINE
  5
156
330
1E
100
AcDbEntity
  8
SIZE
  6
CONTINUOUS
 62
    30
100
AcDbLine
 10
790.9999999999985
 20
539.4071686758377
 30
0.0
 11
785.9999999999985
 21
539.4071686758377
 31
0.0
  0
TEXT
  5
157
330
1E
100
AcDbEntity
  8
SIZE
  6
CONTINUOUS
 62
    30
100
AcDbText
 10
825.9999999999983
 20
559.4071686758377
 30
0.0
 40
64.0
  1
73
 41
0.9
 72
     1
 11
872.6285714285699
 21
559.4071686758377
 31
0.0
100
AcDbText
  0
POINT
  5
158
330
1E
100
AcDbEntity
  8
DEFPOINTS
  6
CONTINUOUS
 62
     7
100
AcDbPoint
 10
722.9999999999981
 20
337.9999999999995
 30
0.0
  0
POINT
  5
159
330
1E
100
AcDbEntity
  8
DEFPOINTS
  6
CONTINUOUS
 62
     7
100
AcDbPoint
 10
795.9999999999985
 20
235.9999999999994
 30
0.0
  0
POINT
  5
15A
330
1E
100
AcDbEntity
  8
DEFPOINTS
  6
CONTINUOUS
 62
     7
100
AcDbPoint
 10
795.9999999999985
 20
539.4071686758377
 30
0.0
  0
LINE
  5
15B
330
1E
100
AcDbEntity
  8
SIZE
  6
CONTINUOUS
 62
    30
100
AcDbLine
 10
752.9999999999985
 20
31.99999999999909
 30
0.0
 11
752.9999999999985
 21
-137.1193382366527
 31
0.0
  0
LINE
  5
15C
330
1E
100
AcDbEntity
  8
SIZE
  6
CONTINUOUS
 62
    30
100
AcDbLine
 10
722.9999999999985
 20
24.99999999999954
 30
0.0
 11
722.9999999999985
 21
-137.1193382366527
 31
0.0
  0
LINE
  5
15D
330
1E
100
AcDbEntity
  8
SIZE
  6
CONTINUOUS
 62
    30
100
AcDbLine
 10
762.9999999999985
 20
-107.1193382366526
 30
0.0
 11
772.9999999999985
 21
-107.1193382366526
 31
0.0
  0
LINE
  5
15E
330
1E
100
AcDbEntity
  8
SIZE
  6
CONTINUOUS
 62
    30
100
AcDbLine
 10
712.9999999999985
 20
-107.1193382366526
 30
0.0
 11
569.7428571428558
 21
-107.1193382366526
 31
0.0
  0
LINE
  5
15F
330
1E
100
AcDbEntity
  8
SIZE
  6
CONTINUOUS
 62
    30
100
AcDbLine
 10
752.9999999999985
 20
-107.1193382366526
 30
0.0
 11
722.9999999999985
 21
-107.1193382366526
 31
0.0
  0
CIRCLE
  5
160
330
1E
100
AcDbEntity
  8
SIZE
  6
CONTINUOUS
 62
    30
100
AcDbCircle
 10
752.9999999999985
 20
-107.1193382366526
 30
0.0
 40
5.0
  0
LINE
  5
161
330
1E
100
AcDbEntity
  8
SIZE
  6
CONTINUOUS
 62
    30
100
AcDbLine
 10
757.9999999999984
 20
-107.1193382366526
 30
0.0
 11
762.9999999999985
 21
-107.1193382366526
 31
0.0
  0
CIRCLE
  5
162
330
1E
100
AcDbEntity
  8
SIZE
  6
CONTINUOUS
 62
    30
100
AcDbCircle
 10
722.9999999999985
 20
-107.1193382366526
 30
0.0
 40
5.0
  0
LINE
  5
163
330
1E
100
AcDbEntity
  8
SIZE
  6
CONTINUOUS
 62
    30
100
AcDbLine
 10
717.9999999999985
 20
-107.1193382366526
 30
0.0
 11
712.9999999999985
 21
-107.1193382366526
 31
0.0
  0
TEXT
  5
164
330
1E
100
AcDbEntity
  8
SIZE
  6
CONTINUOUS
 62
    30
100
AcDbText
 10
589.7428571428559
 20
-87.11933823665278
 30
0.0
 40
64.0
  1
30
 41
0.9
 72
     1
 11
636.3714285714272
 21
-87.11933823665278
 31
0.0
100
AcDbText
  0
POINT
  5
165
330
1E
100
AcDbEntity
  8
DEFPOINTS
  6
CONTINUOUS
 62
     7
100
AcDbPoint
 10
752.9999999999985
 20
51.99999999999909
 30
0.0
  0
POINT
  5
166
330
1E
100
AcDbEntity
  8
DEFPOINTS
  6
CONTINUOUS
 62
     7
100
AcDbPoint
 10
722.9999999999985
 20
44.99999999999952
 30
0.0
  0
POINT
  5
167
330
1E
100
AcDbEntity
  8
DEFPOINTS
  6
CONTINUOUS
 62
     7
100
AcDbPoint
 10
722.9999999999985
 20
-107.1193382366526
 30
0.0
  0
LINE
  5
168
330
1E
100
AcDbEntity
  8
SIZE
  6
CONTINUOUS
 62
    30
100
AcDbLine
 10
-743.0
 20
337.999999999999
 30
0.0
 11
-1226.49530173973
 21
337.9999999999991
 31
0.0
  0
LINE
  5
169
330
1E
100
AcDbEntity
  8
SIZE
  6
CONTINUOUS
 62
    30
100
AcDbLine
 10
-787.0
 20
147.9999999999994
 30
0.0
 11
-1226.49530173973
 21
147.9999999999995
 31
0.0
  0
LINE
  5
16A
330
1E
100
AcDbEntity
  8
SIZE
  6
CONTINUOUS
 62
    30
100
AcDbLine
 10
-1196.49530173973
 20
327.9999999999992
 30
0.0
 11
-1196.49530173973
 21
157.9999999999996
 31
0.0
  0
CIRCLE
  5
16B
330
1E
100
AcDbEntity
  8
SIZE
  6
CONTINUOUS
 62
    30
100
AcDbCircle
 10
-1196.49530173973
 20
337.9999999999991
 30
0.0
 40
5.0
  0
LINE
  5
16C
330
1E
100
AcDbEntity
  8
SIZE
  6
CONTINUOUS
 62
    30
100
AcDbLine
 10
-1196.49530173973
 20
332.9999999999992
 30
0.0
 11
-1196.49530173973
 21
327.9999999999992
 31
0.0
  0
CIRCLE
  5
16D
330
1E
100
AcDbEntity
  8
SIZE
  6
CONTINUOUS
 62
    30
100
AcDbCircle
 10
-1196.49530173973
 20
147.9999999999995
 30
0.0
 40
5.0
  0
LINE
  5
16E
330
1E
100
AcDbEntity
  8
SIZE
  6
CONTINUOUS
 62
    30
100
AcDbLine
 10
-1196.49530173973
 20
152.9999999999995
 30
0.0
 11
-1196.49530173973
 21
157.9999999999996
 31
0.0
  0
TEXT
  5
16F
330
1E
100
AcDbEntity
  8
SIZE
  6
CONTINUOUS
 62
    30
100
AcDbText
 10
-1216.49530173973
 20
174.428571428571
 30
0.0
 40
64.0
  1
190
 50
90.0
 41
0.9
 72
     1
 11
-1216.49530173973
 21
242.9999999999995
 31
0.0
100
AcDbText
  0
POINT
  5
170
330
1E
100
AcDbEntity
  8
DEFPOINTS
  6
CONTINUOUS
 62
     7
100
AcDbPoint
 10
-723.0
 20
337.999999999999
 30
0.0
  0
POINT
  5
171
330
1E
100
AcDbEntity
  8
DEFPOINTS
  6
CONTINUOUS
 62
     7
100
AcDbPoint
 10
-767.0
 20
147.9999999999994
 30
0.0
  0
POINT
  5
172
330
1E
100
AcDbEntity
  8
DEFPOINTS
  6
CONTINUOUS
 62
     7
100
AcDbPoint
 10
-1196.49530173973
 20
147.9999999999995
 30
0.0
  0
LINE
  5
173
330
1E
100
AcDbEntity
  8
SIZE
  6
CONTINUOUS
 62
    30
100
AcDbLine
 10
-743.000000000001
 20
337.9999999999995
 30
0.0
 11
-1340.880209331144
 21
337.9999999999997
 31
0.0
  0
LINE
  5
174
330
1E
100
AcDbEntity
  8
SIZE
  6
CONTINUOUS
 62
    30
100
AcDbLine
 10
-743.0
 20
47.99999999999909
 30
0.0
 11
-1340.880209331144
 21
47.99999999999925
 31
0.0
  0
LINE
  5
175
330
1E
100
AcDbEntity
  8
SIZE
  6
CONTINUOUS
 62
    30
100
AcDbLine
 10
-1310.880209331144
 20
327.9999999999997
 30
0.0
 11
-1310.880209331144
 21
57.99999999999926
 31
0.0
  0
CIRCLE
  5
176
330
1E
100
AcDbEntity
  8
SIZE
  6
CONTINUOUS
 62
    30
100
AcDbCircle
 10
-1310.880209331144
 20
337.9999999999997
 30
0.0
 40
5.0
  0
LINE
  5
177
330
1E
100
AcDbEntity
  8
SIZE
  6
CONTINUOUS
 62
    30
100
AcDbLine
 10
-1310.880209331144
 20
332.9999999999997
 30
0.0
 11
-1310.880209331144
 21
327.9999999999997
 31
0.0
  0
CIRCLE
  5
178
330
1E
100
AcDbEntity
  8
SIZE
  6
CONTINUOUS
 62
    30
100
AcDbCircle
 10
-1310.880209331144
 20
47.99999999999925
 30
0.0
 40
5.0
  0
LINE
  5
179
330
1E
100
AcDbEntity
  8
SIZE
  6
CONTINUOUS
 62
    30
100
AcDbLine
 10
-1310.880209331144
 20
52.99999999999925
 30
0.0
 11
-1310.880209331144
 21
57.99999999999925
 31
0.0
  0
TEXT
  5
17A
330
1E
100
AcDbEntity
  8
SIZE
  6
CONTINUOUS
 62
    30
100
AcDbText
 10
-1330.880209331144
 20
118.9428571428561
 30
0.0
 40
64.0
  1
290
 50
90.0
 41
0.9
 72
     1
 11
-1330.880209331144
 21
192.9999999999989
 31
0.0
100
AcDbText
  0
POINT
  5
17B
330
1E
100
AcDbEntity
  8
DEFPOINTS
  6
CONTINUOUS
 62
     7
100
AcDbPoint
 10
-723.000000000001
 20
337.9999999999995
 30
0.0
  0
POINT
  5
17C
330
1E
100
AcDbEntity
  8
DEFPOINTS
  6
CONTINUOUS
 62
     7
100
AcDbPoint
 10
-723.0
 20
47.99999999999909
 30
0.0
  0
POINT
  5
17D
330
1E
100
AcDbEntity
  8
DEFPOINTS
  6
CONTINUOUS
 62
     7
100
AcDbPoint
 10
-1310.880209331144
 20
47.99999999999925
 30
0.0
  0
LINE
  5
17E
330
1E
100
AcDbEntity
  8
NOTE
  6
CONTINUOUS
 62
     4
100
AcDbLine
 10
313.4999999999989
 20
124.9999999999995
 30
0.0
 11
313.4999999999989
 21
164.9999999999994
 31
0.0
  0
LINE
  5
17F
330
1E
100
AcDbEntity
  8
NOTE
  6
CONTINUOUS
 62
     4
100
AcDbLine
 10
333.499999999999
 20
144.9999999999994
 30
0.0
 11
293.499999999999
 21
144.9999999999994
 31
0.0
  0
LINE
  5
180
330
1E
100
AcDbEntity
  8
NOTE
  6
CONTINUOUS
 62
     4
100
AcDbLine
 10
313.4999999999989
 20
283.9999999999994
 30
0.0
 11
313.4999999999989
 21
323.9999999999994
 31
0.0
  0
LINE
  5
181
330
1E
100
AcDbEntity
  8
NOTE
  6
CONTINUOUS
 62
     4
100
AcDbLine
 10
333.499999999999
 20
303.9999999999995
 30
0.0
 11
293.499999999999
 21
303.9999999999995
 31
0.0
  0
LINE
  5
182
330
1E
100
AcDbEntity
  8
NOTE
  6
CONTINUOUS
 62
     4
100
AcDbLine
 10
144.999999999999
 20
303.9999999999995
 30
0.0
 11
104.999999999999
 21
303.9999999999995
 31
0.0
  0
LINE
  5
183
330
1E
100
AcDbEntity
  8
NOTE
  6
CONTINUOUS
 62
     4
100
AcDbLine
 10
144.999999999999
 20
144.9999999999994
 30
0.0
 11
104.999999999999
 21
144.9999999999994
 31
0.0
  0
LINE
  5
184
330
1E
100
AcDbEntity
  8
NOTE
  6
CONTINUOUS
 62
     4
100
AcDbLine
 10
124.999999999999
 20
124.9999999999995
 30
0.0
 11
124.999999999999
 21
164.9999999999994
 31
0.0
  0
LINE
  5
185
330
1E
100
AcDbEntity
  8
NOTE
  6
CONTINUOUS
 62
     4
100
AcDbLine
 10
124.999999999999
 20
283.9999999999994
 30
0.0
 11
124.999999999999
 21
323.9999999999994
 31
0.0
  0
LINE
  5
186
330
1E
100
AcDbEntity
  8
NOTE
  6
CONTINUOUS
 62
     4
100
AcDbLine
 10
-63.5000000000009
 20
124.9999999999995
 30
0.0
 11
-63.5000000000009
 21
164.9999999999994
 31
0.0
  0
LINE
  5
187
330
1E
100
AcDbEntity
  8
NOTE
  6
CONTINUOUS
 62
     4
100
AcDbLine
 10
-43.50000000000091
 20
144.9999999999994
 30
0.0
 11
-83.50000000000093
 21
144.9999999999994
 31
0.0
  0
LINE
  5
188
330
1E
100
AcDbEntity
  8
NOTE
  6
CONTINUOUS
 62
     4
100
AcDbLine
 10
-63.5000000000009
 20
283.9999999999994
 30
0.0
 11
-63.5000000000009
 21
323.9999999999994
 31
0.0
  0
LINE
  5
189
330
1E
100
AcDbEntity
  8
NOTE
  6
CONTINUOUS
 62
     4
100
AcDbLine
 10
-43.50000000000091
 20
303.9999999999995
 30
0.0
 11
-83.50000000000093
 21
303.9999999999995
 31
0.0
  0
LINE
  5
18A
330
1E
100
AcDbEntity
  8
NOTE
  6
CONTINUOUS
 62
     4
100
AcDbLine
 10
-232.0000000000008
 20
144.9999999999994
 30
0.0
 11
-272.0000000000008
 21
144.9999999999994
 31
0.0
  0
LINE
  5
18B
330
1E
100
AcDbEntity
  8
NOTE
  6
CONTINUOUS
 62
     4
100
AcDbLine
 10
-252.0000000000008
 20
124.9999999999995
 30
0.0
 11
-252.0000000000008
 21
164.9999999999994
 31
0.0
  0
LINE
  5
18C
330
1E
100
AcDbEntity
  8
NOTE
  6
CONTINUOUS
 62
     4
100
AcDbLine
 10
-232.0000000000008
 20
303.9999999999995
 30
0.0
 11
-272.0000000000008
 21
303.9999999999995
 31
0.0
  0
LINE
  5
18D
330
1E
100
AcDbEntity
  8
NOTE
  6
CONTINUOUS
 62
     4
100
AcDbLine
 10
-252.0000000000008
 20
283.9999999999994
 30
0.0
 11
-252.0000000000008
 21
323.9999999999994
 31
0.0
  0
LINE
  5
18E
330
1E
100
AcDbEntity
  8
DETAIL
  6
CONTINUOUS
 62
     5
100
AcDbLine
 10
-252.0000000000013
 20
285.9999999999989
 30
0.0
 11
-252.0000000000013
 21
175.999999999999
 31
0.0
  0
LINE
  5
18F
330
1E
100
AcDbEntity
  8
SIZE
  6
CONTINUOUS
 62
    30
100
AcDbLine
 10
501.9999999999988
 20
343.9999999999995
 30
0.0
 11
501.9999999999988
 21
509.7928008183463
 31
0.0
  0
LINE
  5
190
330
1E
100
AcDbEntity
  8
SIZE
  6
CONTINUOUS
 62
    30
100
AcDbLine
 10
313.4999999999989
 20
343.9999999999995
 30
0.0
 11
313.4999999999989
 21
509.7928008183463
 31
0.0
  0
LINE
  5
191
330
1E
100
AcDbEntity
  8
SIZE
  6
CONTINUOUS
 62
    30
100
AcDbLine
 10
511.9999999999991
 20
479.7928008183462
 30
0.0
 11
521.9999999999989
 21
479.7928008183462
 31
0.0
  0
LINE
  5
192
330
1E
100
AcDbEntity
  8
SIZE
  6
CONTINUOUS
 62
    30
100
AcDbLine
 10
303.4999999999989
 20
479.7928008183462
 30
0.0
 11
293.499999999999
 21
479.7928008183462
 31
0.0
  0
LINE
  5
193
330
1E
100
AcDbEntity
  8
SIZE
  6
CONTINUOUS
 62
    30
100
AcDbLine
 10
501.9999999999988
 20
479.7928008183462
 30
0.0
 11
313.4999999999989
 21
479.7928008183462
 31
0.0
  0
CIRCLE
  5
194
330
1E
100
AcDbEntity
  8
SIZE
  6
CONTINUOUS
 62
    30
100
AcDbCircle
 10
501.9999999999988
 20
479.7928008183462
 30
0.0
 40
5.0
  0
LINE
  5
195
330
1E
100
AcDbEntity
  8
SIZE
  6
CONTINUOUS
 62
    30
100
AcDbLine
 10
506.9999999999989
 20
479.7928008183462
 30
0.0
 11
511.9999999999989
 21
479.7928008183462
 31
0.0
  0
CIRCLE
  5
196
330
1E
100
AcDbEntity
  8
SIZE
  6
CONTINUOUS
 62
    30
100
AcDbCircle
 10
313.4999999999989
 20
479.7928008183462
 30
0.0
 40
5.0
  0
LINE
  5
197
330
1E
100
AcDbEntity
  8
SIZE
  6
CONTINUOUS
 62
    30
100
AcDbLine
 10
308.4999999999989
 20
479.7928008183462
 30
0.0
 11
303.4999999999989
 21
479.7928008183462
 31
0.0
  0
TEXT
  5
198
330
1E
100
AcDbEntity
  8
SIZE
  6
CONTINUOUS
 62
    30
100
AcDbText
 10
298.0357142857132
 20
499.7928008183462
 30
0.0
 40
64.0
  1
188.5
 41
0.9
 72
     1
 11
407.7499999999989
 21
499.7928008183462
 31
0.0
100
AcDbText
  0
POINT
  5
199
330
1E
100
AcDbEntity
  8
DEFPOINTS
  6
CONTINUOUS
 62
     7
100
AcDbPoint
 10
501.9999999999988
 20
323.9999999999994
 30
0.0
  0
POINT
  5
19A
330
1E
100
AcDbEntity
  8
DEFPOINTS
  6
CONTINUOUS
 62
     7
100
AcDbPoint
 10
313.4999999999989
 20
323.9999999999994
 30
0.0
  0
POINT
  5
19B
330
1E
100
AcDbEntity
  8
DEFPOINTS
  6
CONTINUOUS
 62
     7
100
AcDbPoint
 10
313.4999999999989
 20
479.7928008183462
 30
0.0
  0
LINE
  5
19C
330
1E
100
AcDbEntity
  8
SIZE
  6
CONTINUOUS
 62
    30
100
AcDbLine
 10
501.9999999999988
 20
343.9999999999995
 30
0.0
 11
501.9999999999988
 21
637.3869999999993
 31
0.0
  0
LINE
  5
19D
330
1E
100
AcDbEntity
  8
SIZE
  6
CONTINUOUS
 62
    30
100
AcDbLine
 10
-252.0000000000008
 20
343.9999999999995
 30
0.0
 11
-252.0000000000008
 21
637.3869999999993
 31
0.0
  0
LINE
  5
19E
330
1E
100
AcDbEntity
  8
SIZE
  6
CONTINUOUS
 62
    30
100
AcDbLine
 10
491.9999999999991
 20
607.3869999999992
 30
0.0
 11
-242.0000000000007
 21
607.3869999999992
 31
0.0
  0
CIRCLE
  5
19F
330
1E
100
AcDbEntity
  8
SIZE
  6
CONTINUOUS
 62
    30
100
AcDbCircle
 10
501.9999999999988
 20
607.3869999999992
 30
0.0
 40
5.0
  0
LINE
  5
1A0
330
1E
100
AcDbEntity
  8
SIZE
  6
CONTINUOUS
 62
    30
100
AcDbLine
 10
496.9999999999989
 20
607.3869999999992
 30
0.0
 11
491.9999999999989
 21
607.3869999999992
 31
0.0
  0
CIRCLE
  5
1A1
330
1E
100
AcDbEntity
  8
SIZE
  6
CONTINUOUS
 62
    30
100
AcDbCircle
 10
-252.0000000000008
 20
607.3869999999992
 30
0.0
 40
5.0
  0
LINE
  5
1A2
330
1E
100
AcDbEntity
  8
SIZE
  6
CONTINUOUS
 62
    30
100
AcDbLine
 10
-247.0000000000008
 20
607.3869999999992
 30
0.0
 11
-242.0000000000007
 21
607.3869999999992
 31
0.0
  0
TEXT
  5
1A3
330
1E
100
AcDbEntity
  8
SIZE
  6
CONTINUOUS
 62
    30
100
AcDbText
 10
49.57142857142767
 20
627.3869999999992
 30
0.0
 40
64.0
  1
754
 41
0.9
 72
     1
 11
124.999999999999
 21
627.3869999999992
 31
0.0
100
AcDbText
  0
POINT
  5
1A4
330
1E
100
AcDbEntity
  8
DEFPOINTS
  6
CONTINUOUS
 62
     7
100
AcDbPoint
 10
501.9999999999988
 20
323.9999999999994
 30
0.0
  0
POINT
  5
1A5
330
1E
100
AcDbEntity
  8
DEFPOINTS
  6
CONTINUOUS
 62
     7
100
AcDbPoint
 10
-252.0000000000008
 20
323.9999999999994
 30
0.0
  0
POINT
  5
1A6
330
1E
100
AcDbEntity
  8
DEFPOINTS
  6
CONTINUOUS
 62
     7
100
AcDbPoint
 10
-252.0000000000008
 20
607.3869999999992
 30
0.0
  0
LINE
  5
1A7
330
1E
100
AcDbEntity
  8
SIZE
  6
CONTINUOUS
 62
    30
100
AcDbLine
 10
-252.0000000000013
 20
195.9999999999994
 30
0.0
 11
-252.0000000000013
 21
222.3793820127994
 31
0.0
  0
LINE
  5
1A8
330
1E
100
AcDbEntity
  8
SIZE
  6
CONTINUOUS
 62
    30
100
AcDbLine
 10
501.9999999999985
 20
195.9999999999994
 30
0.0
 11
501.9999999999985
 21
222.3793820127994
 31
0.0
  0
LINE
  5
1A9
330
1E
100
AcDbEntity
  8
SIZE
  6
CONTINUOUS
 62
    30
100
AcDbLine
 10
-242.0000000000013
 20
192.3793820127994
 30
0.0
 11
491.9999999999985
 21
192.3793820127994
 31
0.0
  0
CIRCLE
  5
1AA
330
1E
100
AcDbEntity
  8
SIZE
  6
CONTINUOUS
 62
    30
100
AcDbCircle
 10
-252.0000000000013
 20
192.3793820127994
 30
0.0
 40
5.0
  0
LINE
  5
1AB
330
1E
100
AcDbEntity
  8
SIZE
  6
CONTINUOUS
 62
    30
100
AcDbLine
 10
-247.0000000000013
 20
192.3793820127994
 30
0.0
 11
-242.0000000000013
 21
192.3793820127994
 31
0.0
  0
CIRCLE
  5
1AC
330
1E
100
AcDbEntity
  8
SIZE
  6
CONTINUOUS
 62
    30
100
AcDbCircle
 10
501.9999999999985
 20
192.3793820127994
 30
0.0
 40
5.0
  0
LINE
  5
1AD
330
1E
100
AcDbEntity
  8
SIZE
  6
CONTINUOUS
 62
    30
100
AcDbLine
 10
496.9999999999985
 20
192.3793820127994
 30
0.0
 11
491.9999999999985
 21
192.3793820127994
 31
0.0
  0
TEXT
  5
1AE
330
1E
100
AcDbEntity
  8
SIZE
  6
CONTINUOUS
 62
    30
100
AcDbText
 10
49.57142857142717
 20
212.3793820127992
 30
0.0
 40
64.0
  1
754
 41
0.9
 72
     1
 11
124.9999999999986
 21
212.3793820127992
 31
0.0
100
AcDbText
  0
POINT
  5
1AF
330
1E
100
AcDbEntity
  8
DEFPOINTS
  6
CONTINUOUS
 62
     7
100
AcDbPoint
 10
-252.0000000000013
 20
175.9999999999994
 30
0.0
  0
POINT
  5
1B0
330
1E
100
AcDbEntity
  8
DEFPOINTS
  6
CONTINUOUS
 62
     7
100
AcDbPoint
 10
501.9999999999985
 20
175.9999999999994
 30
0.0
  0
POINT
  5
1B1
330
1E
100
AcDbEntity
  8
DEFPOINTS
  6
CONTINUOUS
 62
     7
100
AcDbPoint
 10
501.9999999999985
 20
192.3793820127994
 30
0.0
  0
LINE
  5
1B2
330
1E
100
AcDbEntity
  8
SIZE
  6
CONTINUOUS
 62
    30
100
AcDbLine
 10
-723.000000000001
 20
357.9999999999985
 30
0.0
 11
-723.000000000001
 21
871.6490106821746
 31
0.0
  0
LINE
  5
1B3
330
1E
100
AcDbEntity
  8
SIZE
  6
CONTINUOUS
 62
    30
100
AcDbLine
 10
722.9999999999985
 20
357.999999999998
 30
0.0
 11
722.9999999999985
 21
871.6490106821746
 31
0.0
  0
LINE
  5
1B4
330
1E
100
AcDbEntity
  8
SIZE
  6
CONTINUOUS
 62
    30
100
AcDbLine
 10
-713.0000000000009
 20
841.6490106821745
 30
0.0
 11
712.9999999999985
 21
841.6490106821745
 31
0.0
  0
CIRCLE
  5
1B5
330
1E
100
AcDbEntity
  8
SIZE
  6
CONTINUOUS
 62
    30
100
AcDbCircle
 10
-723.000000000001
 20
841.6490106821745
 30
0.0
 40
5.0
  0
LINE
  5
1B6
330
1E
100
AcDbEntity
  8
SIZE
  6
CONTINUOUS
 62
    30
100
AcDbLine
 10
-718.0000000000009
 20
841.6490106821745
 30
0.0
 11
-713.0000000000009
 21
841.6490106821745
 31
0.0
  0
CIRCLE
  5
1B7
330
1E
100
AcDbEntity
  8
SIZE
  6
CONTINUOUS
 62
    30
100
AcDbCircle
 10
722.9999999999985
 20
841.6490106821745
 30
0.0
 40
5.0
  0
LINE
  5
1B8
330
1E
100
AcDbEntity
  8
SIZE
  6
CONTINUOUS
 62
    30
100
AcDbLine
 10
717.9999999999985
 20
841.6490106821745
 30
0.0
 11
712.9999999999985
 21
841.6490106821745
 31
0.0
  0
TEXT
  5
1B9
330
1E
100
AcDbEntity
  8
SIZE
  6
CONTINUOUS
 62
    30
100
AcDbText
 10
-94.62857142857256
 20
861.6490106821746
 30
0.0
 40
64.0
  1
1446
 41
0.9
 72
     1
 11
-0.0000000000011369
 21
861.6490106821746
 31
0.0
100
AcDbText
  0
POINT
  5
1BA
330
1E
100
AcDbEntity
  8
DEFPOINTS
  6
CONTINUOUS
 62
     7
100
AcDbPoint
 10
-723.000000000001
 20
337.9999999999985
 30
0.0
  0
POINT
  5
1BB
330
1E
100
AcDbEntity
  8
DEFPOINTS
  6
CONTINUOUS
 62
     7
100
AcDbPoint
 10
722.9999999999985
 20
337.999999999998
 30
0.0
  0
POINT
  5
1BC
330
1E
100
AcDbEntity
  8
DEFPOINTS
  6
CONTINUOUS
 62
     7
100
AcDbPoint
 10
722.9999999999985
 20
841.6490106821745
 30
0.0
  0
LINE
  5
1BD
330
1E
100
AcDbEntity
  8
SIZE
  6
CONTINUOUS
 62
    30
100
AcDbLine
 10
-855.0
 20
-20.00000000000044
 30
0.0
 11
-855.0
 21
-208.761564631879
 31
0.0
  0
LINE
  5
1BE
330
1E
100
AcDbEntity
  8
SIZE
  6
CONTINUOUS
 62
    30
100
AcDbLine
 10
854.9999999999995
 20
-20.00000000000044
 30
0.0
 11
854.9999999999995
 21
-208.761564631879
 31
0.0
  0
LINE
  5
1BF
330
1E
100
AcDbEntity
  8
SIZE
  6
CONTINUOUS
 62
    30
100
AcDbLine
 10
-845.0
 20
-178.761564631879
 30
0.0
 11
844.9999999999995
 21
-178.761564631879
 31
0.0
  0
CIRCLE
  5
1C0
330
1E
100
AcDbEntity
  8
SIZE
  6
CONTINUOUS
 62
    30
100
AcDbCircle
 10
-855.0
 20
-178.761564631879
 30
0.0
 40
5.0
  0
LINE
  5
1C1
330
1E
100
AcDbEntity
  8
SIZE
  6
CONTINUOUS
 62
    30
100
AcDbLine
 10
-850.0
 20
-178.761564631879
 30
0.0
 11
-845.0
 21
-178.761564631879
 31
0.0
  0
CIRCLE
  5
1C2
330
1E
100
AcDbEntity
  8
SIZE
  6
CONTINUOUS
 62
    30
100
AcDbCircle
 10
854.9999999999995
 20
-178.761564631879
 30
0.0
 40
5.0
  0
LINE
  5
1C3
330
1E
100
AcDbEntity
  8
SIZE
  6
CONTINUOUS
 62
    30
100
AcDbLine
 10
849.9999999999996
 20
-178.761564631879
 30
0.0
 11
844.9999999999995
 21
-178.761564631879
 31
0.0
  0
TEXT
  5
1C4
330
1E
100
AcDbEntity
  8
SIZE
  6
CONTINUOUS
 62
    30
100
AcDbText
 10
-90.51428571428592
 20
-158.761564631879
 30
0.0
 40
64.0
  1
1710
 41
0.9
 72
     1
 11
-0.0000000000002274
 21
-158.761564631879
 31
0.0
100
AcDbText
  0
POINT
  5
1C5
330
1E
100
AcDbEntity
  8
DEFPOINTS
  6
CONTINUOUS
 62
     7
100
AcDbPoint
 10
-855.0
 20
-0.0000000000004547
 30
0.0
  0
POINT
  5
1C6
330
1E
100
AcDbEntity
  8
DEFPOINTS
  6
CONTINUOUS
 62
     7
100
AcDbPoint
 10
854.9999999999995
 20
-0.0000000000004547
 30
0.0
  0
POINT
  5
1C7
330
1E
100
AcDbEntity
  8
DEFPOINTS
  6
CONTINUOUS
 62
     7
100
AcDbPoint
 10
854.9999999999995
 20
-178.761564631879
 30
0.0
  0
LINE
  5
1C8
330
1E
100
AcDbEntity
  8
SIZE
  6
CONTINUOUS
 62
    30
100
AcDbLine
 10
-875.0
 20
-20.00000000000044
 30
0.0
 11
-875.0
 21
-500.2444530000001
 31
0.0
  0
LINE
  5
1C9
330
1E
100
AcDbEntity
  8
SIZE
  6
CONTINUOUS
 62
    30
100
AcDbLine
 10
874.9999999999996
 20
-20.00000000000044
 30
0.0
 11
874.9999999999996
 21
-500.2444530000001
 31
0.0
  0
LINE
  5
1CA
330
1E
100
AcDbEntity
  8
SIZE
  6
CONTINUOUS
 62
    30
100
AcDbLine
 10
-865.0
 20
-470.2444530000001
 30
0.0
 11
864.9999999999995
 21
-470.2444530000001
 31
0.0
  0
CIRCLE
  5
1CB
330
1E
100
AcDbEntity
  8
SIZE
  6
CONTINUOUS
 62
    30
100
AcDbCircle
 10
-875.0
 20
-470.2444530000001
 30
0.0
 40
5.0
  0
LINE
  5
1CC
330
1E
100
AcDbEntity
  8
SIZE
  6
CONTINUOUS
 62
    30
100
AcDbLine
 10
-870.0
 20
-470.2444530000001
 30
0.0
 11
-865.0
 21
-470.2444530000001
 31
0.0
  0
CIRCLE
  5
1CD
330
1E
100
AcDbEntity
  8
SIZE
  6
CONTINUOUS
 62
    30
100
AcDbCircle
 10
874.9999999999996
 20
-470.2444530000001
 30
0.0
 40
5.0
  0
LINE
  5
1CE
330
1E
100
AcDbEntity
  8
SIZE
  6
CONTINUOUS
 62
    30
100
AcDbLine
 10
869.9999999999995
 20
-470.2444530000001
 30
0.0
 11
864.9999999999995
 21
-470.2444530000001
 31
0.0
  0
TEXT
  5
1CF
330
1E
100
AcDbEntity
  8
SIZE
  6
CONTINUOUS
 62
    30
100
AcDbText
 10
-96.00000000000022
 20
-450.2444530000001
 30
0.0
 40
64.0
  1
1750
 41
0.9
 72
     1
 11
-0.0000000000002274
 21
-450.2444530000001
 31
0.0
100
AcDbText
  0
POINT
  5
1D0
330
1E
100
AcDbEntity
  8
DEFPOINTS
  6
CONTINUOUS
 62
     7
100
AcDbPoint
 10
-875.0
 20
-0.0000000000004547
 30
0.0
  0
POINT
  5
1D1
330
1E
100
AcDbEntity
  8
DEFPOINTS
  6
CONTINUOUS
 62
     7
100
AcDbPoint
 10
874.9999999999996
 20
-0.0000000000004547
 30
0.0
  0
POINT
  5
1D2
330
1E
100
AcDbEntity
  8
DEFPOINTS
  6
CONTINUOUS
 62
     7
100
AcDbPoint
 10
874.9999999999996
 20
-470.2444530000001
 30
0.0
  0
LINE
  5
1D3
330
1E
100
AcDbEntity
  8
SIZE
  6
CONTINUOUS
 62
    30
100
AcDbLine
 10
-747.0
 20
107.9999999999994
 30
0.0
 11
-747.0
 21
-626.4517531121874
 31
0.0
  0
LINE
  5
1D4
330
1E
100
AcDbEntity
  8
SIZE
  6
CONTINUOUS
 62
    30
100
AcDbLine
 10
746.9999999999981
 20
107.9999999999994
 30
0.0
 11
746.9999999999981
 21
-626.4517531121874
 31
0.0
  0
LINE
  5
1D5
330
1E
100
AcDbEntity
  8
SIZE
  6
CONTINUOUS
 62
    30
100
AcDbLine
 10
-737.0
 20
-596.4517531121872
 30
0.0
 11
736.9999999999982
 21
-596.4517531121872
 31
0.0
  0
CIRCLE
  5
1D6
330
1E
100
AcDbEntity
  8
SIZE
  6
CONTINUOUS
 62
    30
100
AcDbCircle
 10
-747.0
 20
-596.4517531121872
 30
0.0
 40
5.0
  0
LINE
  5
1D7
330
1E
100
AcDbEntity
  8
SIZE
  6
CONTINUOUS
 62
    30
100
AcDbLine
 10
-742.0
 20
-596.4517531121872
 30
0.0
 11
-737.0
 21
-596.4517531121872
 31
0.0
  0
CIRCLE
  5
1D8
330
1E
100
AcDbEntity
  8
SIZE
  6
CONTINUOUS
 62
    30
100
AcDbCircle
 10
746.9999999999981
 20
-596.4517531121872
 30
0.0
 40
5.0
  0
LINE
  5
1D9
330
1E
100
AcDbEntity
  8
SIZE
  6
CONTINUOUS
 62
    30
100
AcDbLine
 10
741.9999999999982
 20
-596.4517531121872
 30
0.0
 11
736.9999999999982
 21
-596.4517531121872
 31
0.0
  0
TEXT
  5
1DA
330
1E
100
AcDbEntity
  8
SIZE
  6
CONTINUOUS
 62
    30
100
AcDbText
 10
-97.37142857142949
 20
-576.4517531121872
 30
0.0
 40
64.0
  1
1494
 41
0.9
 72
     1
 11
-0.0000000000009095
 21
-576.4517531121872
 31
0.0
100
AcDbText
  0
POINT
  5
1DB
330
1E
100
AcDbEntity
  8
DEFPOINTS
  6
CONTINUOUS
 62
     7
100
AcDbPoint
 10
-747.0
 20
127.9999999999995
 30
0.0
  0
POINT
  5
1DC
330
1E
100
AcDbEntity
  8
DEFPOINTS
  6
CONTINUOUS
 62
     7
100
AcDbPoint
 10
746.9999999999981
 20
127.9999999999995
 30
0.0
  0
POINT
  5
1DD
330
1E
100
AcDbEntity
  8
DEFPOINTS
  6
CONTINUOUS
 62
     7
100
AcDbPoint
 10
746.9999999999981
 20
-596.4517531121872
 30
0.0
  0
LINE
  5
1DE
330
1E
100
AcDbEntity
  8
SIZE
  6
CONTINUOUS
 62
    30
100
AcDbLine
 10
-272.0000000000013
 20
175.9999999999994
 30
0.0
 11
-1104.85730322382
 21
175.9999999999998
 31
0.0
  0
LINE
  5
1DF
330
1E
100
AcDbEntity
  8
SIZE
  6
CONTINUOUS
 62
    30
100
AcDbLine
 10
-272.0000000000013
 20
285.9999999999994
 30
0.0
 11
-1104.85730322382
 21
285.9999999999997
 31
0.0
  0
LINE
  5
1E0
330
1E
100
AcDbEntity
  8
SIZE
  6
CONTINUOUS
 62
    30
100
AcDbLine
 10
-1074.857303223822
 20
165.9999999999996
 30
0.0
 11
-1074.857303223822
 21
155.9999999999996
 31
0.0
  0
LINE
  5
1E1
330
1E
100
AcDbEntity
  8
SIZE
  6
CONTINUOUS
 62
    30
100
AcDbLine
 10
-1074.857303223822
 20
295.9999999999997
 30
0.0
 11
-1074.857303223822
 21
305.9999999999997
 31
0.0
  0
LINE
  5
1E2
330
1E
100
AcDbEntity
  8
SIZE
  6
CONTINUOUS
 62
    30
100
AcDbLine
 10
-1074.857303223822
 20
175.9999999999996
 30
0.0
 11
-1074.857303223822
 21
285.9999999999997
 31
0.0
  0
CIRCLE
  5
1E3
330
1E
100
AcDbEntity
  8
SIZE
  6
CONTINUOUS
 62
    30
100
AcDbCircle
 10
-1074.857303223822
 20
175.9999999999996
 30
0.0
 40
5.0
  0
LINE
  5
1E4
330
1E
100
AcDbEntity
  8
SIZE
  6
CONTINUOUS
 62
    30
100
AcDbLine
 10
-1074.857303223822
 20
170.9999999999996
 30
0.0
 11
-1074.857303223822
 21
165.9999999999996
 31
0.0
  0
CIRCLE
  5
1E5
330
1E
100
AcDbEntity
  8
SIZE
  6
CONTINUOUS
 62
    30
100
AcDbCircle
 10
-1074.857303223822
 20
285.9999999999997
 30
0.0
 40
5.0
  0
LINE
  5
1E6
330
1E
100
AcDbEntity
  8
SIZE
  6
CONTINUOUS
 62
    30
100
AcDbLine
 10
-1074.857303223822
 20
290.9999999999996
 30
0.0
 11
-1074.857303223822
 21
295.9999999999997
 31
0.0
  0
TEXT
  5
1E7
330
1E
100
AcDbEntity
  8
SIZE
  6
CONTINUOUS
 62
    30
100
AcDbText
 10
-1094.857303223822
 20
167.9142857142853
 30
0.0
 40
64.0
  1
110
 50
90.0
 41
0.9
 72
     1
 11
-1094.857303223822
 21
230.9999999999995
 31
0.0
100
AcDbText
  0
POINT
  5
1E8
330
1E
100
AcDbEntity
  8
DEFPOINTS
  6
CONTINUOUS
 62
     7
100
AcDbPoint
 10
-252.0000000000013
 20
175.9999999999994
 30
0.0
  0
POINT
  5
1E9
330
1E
100
AcDbEntity
  8
DEFPOINTS
  6
CONTINUOUS
 62
     7
100
AcDbPoint
 10
-252.0000000000013
 20
285.9999999999994
 30
0.0
  0
POINT
  5
1EA
330
1E
100
AcDbEntity
  8
DEFPOINTS
  6
CONTINUOUS
 62
     7
100
AcDbPoint
 10
-1074.857303223822
 20
285.9999999999997
 30
0.0
  0
LINE
  5
1EB
330
1E
100
AcDbEntity
  8
SIZE
  6
CONTINUOUS
 62
    30
100
AcDbLine
 10
-272.0000000000013
 20
285.9999999999994
 30
0.0
 11
-1104.85730322382
 21
285.9999999999997
 31
0.0
  0
LINE
  5
1EC
330
1E
100
AcDbEntity
  8
SIZE
  6
CONTINUOUS
 62
    30
100
AcDbLine
 10
-743.000000000001
 20
337.9999999999995
 30
0.0
 11
-1104.85730322382
 21
337.9999999999995
 31
0.0
  0
LINE
  5
1ED
330
1E
100
AcDbEntity
  8
SIZE
  6
CONTINUOUS
 62
    30
100
AcDbLine
 10
-1074.857303223822
 20
275.9999999999997
 30
0.0
 11
-1074.857303223822
 21
265.9999999999997
 31
0.0
  0
LINE
  5
1EE
330
1E
100
AcDbEntity
  8
SIZE
  6
CONTINUOUS
 62
    30
100
AcDbLine
 10
-1074.857303223822
 20
347.9999999999995
 30
0.0
 11
-1074.857303223822
 21
357.9999999999996
 31
0.0
  0
LINE
  5
1EF
330
1E
100
AcDbEntity
  8
SIZE
  6
CONTINUOUS
 62
    30
100
AcDbLine
 10
-1074.857303223822
 20
493.1448728620928
 30
0.0
 11
-1074.857303223822
 21
337.9999999999995
 31
0.0
  0
TEXT
  5
1F0
330
1E
100
AcDbEntity
  8
SIZE
  6
CONTINUOUS
 62
    30
100
AcDbText
 10
-1094.857303223822
 20
379.8877300049497
 30
0.0
 40
64.0
  1
52
 50
90.0
 41
0.9
 72
     1
 11
-1094.857303223822
 21
426.5163014335212
 31
0.0
100
AcDbText
  0
LINE
  5
1F1
330
1E
100
AcDbEntity
  8
SIZE
  6
CONTINUOUS
 62
    30
100
AcDbLine
 10
-1074.857303223822
 20
285.9999999999997
 30
0.0
 11
-1074.857303223822
 21
337.9999999999995
 31
0.0
  0
LINE
  5
1F2
330
1E
100
AcDbEntity
  8
SIZE
  6
CONTINUOUS
 62
    30
100
AcDbLine
 10
-1074.857303223822
 20
285.9999999999997
 30
0.0
 11
-1074.857303223822
 21
337.9999999999995
 31
0.0
  0
CIRCLE
  5
1F3
330
1E
100
AcDbEntity
  8
SIZE
  6
CONTINUOUS
 62
    30
100
AcDbCircle
 10
-1074.857303223822
 20
285.9999999999997
 30
0.0
 40
5.0
  0
LINE
  5
1F4
330
1E
100
AcDbEntity
  8
SIZE
  6
CONTINUOUS
 62
    30
100
AcDbLine
 10
-1074.857303223822
 20
280.9999999999997
 30
0.0
 11
-1074.857303223822
 21
275.9999999999997
 31
0.0
  0
CIRCLE
  5
1F5
330
1E
100
AcDbEntity
  8
SIZE
  6
CONTINUOUS
 62
    30
100
AcDbCircle
 10
-1074.857303223822
 20
337.9999999999995
 30
0.0
 40
5.0
  0
LINE
  5
1F6
330
1E
100
AcDbEntity
  8
SIZE
  6
CONTINUOUS
 62
    30
100
AcDbLine
 10
-1074.857303223822
 20
342.9999999999994
 30
0.0
 11
-1074.857303223822
 21
347.9999999999995
 31
0.0
  0
POINT
  5
1F7
330
1E
100
AcDbEntity
  8
DEFPOINTS
  6
CONTINUOUS
 62
     7
100
AcDbPoint
 10
-252.0000000000013
 20
285.9999999999994
 30
0.0
  0
POINT
  5
1F8
330
1E
100
AcDbEntity
  8
DEFPOINTS
  6
CONTINUOUS
 62
     7
100
AcDbPoint
 10
-723.000000000001
 20
337.9999999999995
 30
0.0
  0
POINT
  5
1F9
330
1E
100
AcDbEntity
  8
DEFPOINTS
  6
CONTINUOUS
 62
     7
100
AcDbPoint
 10
-1074.857303223822
 20
337.9999999999995
 30
0.0
  0
LINE
  5
1FA
330
1E
100
AcDbEntity
  8
OUTLINE
  6
CONTINUOUS
 62
     3
100
AcDbLine
 10
722.9999999999981
 20
338.0
 30
0.0
 11
-723.000000000001
 21
337.999999999998
 31
0.0
  0
LINE
  5
1FB
330
1E
100
AcDbEntity
  8
OUTLINE
  6
CONTINUOUS
 62
     3
100
AcDbLine
 10
843.0
 20
45.0
 30
0.0
 11
-843.0
 21
44.99999999999817
 31
0.0
  0
LINE
  5
1FC
330
1E
100
AcDbEntity
  8
OUTLINE
  6
CONTINUOUS
 62
     3
100
AcDbLine
 10
875.0
 20
0.0
 30
0.0
 11
-875.0
 21
0.0
 31
0.0
  0
LINE
  5
1FD
330
1E
100
AcDbEntity
  8
OUTLINE
  6
CONTINUOUS
 62
     3
100
AcDbLine
 10
868.0
 20
-8.0
 30
0.0
 11
-868.0
 21
-8.0
 31
0.0
  0
ARC
  5
1FE
330
1E
100
AcDbEntity
  8
OUTLINE
  6
CONTINUOUS
 62
     3
100
AcDbCircle
 10
-868.0
 20
-1.0
 30
0.0
 40
7.0
100
AcDbArc
 50
180.0
 51
270.0
  0
LINE
  5
1FF
330
1E
100
AcDbEntity
  8
OUTLINE
  6
CONTINUOUS
 62
     3
100
AcDbLine
 10
-875.0
 20
-1.0
 30
0.0
 11
-875.0
 21
0.0
 31
0.0
  0
LINE
  5
200
330
1E
100
AcDbEntity
  8
OUTLINE
  6
CONTINUOUS
 62
     3
100
AcDbLine
 10
-723.000000000001
 20
338.0
 30
0.0
 11
-723.000000000001
 21
45.0
 31
0.0
  0
LINE
  5
201
330
1E
100
AcDbEntity
  8
OUTLINE
  6
CONTINUOUS
 62
     3
100
AcDbLine
 10
-723.0
 20
148.0
 30
0.0
 11
-773.0
 21
148.0
 31
0.0
  0
LINE
  5
202
330
1E
100
AcDbEntity
  8
OUTLINE
  6
CONTINUOUS
 62
     3
100
AcDbLine
 10
-723.0
 20
145.6999999999989
 30
0.0
 11
-773.0
 21
145.6999999999989
 31
0.0
  0
LINE
  5
203
330
1E
100
AcDbEntity
  8
OUTLINE
  6
CONTINUOUS
 62
     3
100
AcDbLine
 10
-773.0
 20
148.0
 30
0.0
 11
-773.0
 21
145.7000000000006
 31
0.0
  0
LINE
  5
204
330
1E
100
AcDbEntity
  8
OUTLINE
  6
CONTINUOUS
 62
     3
100
AcDbLine
 10
-843.0
 20
45.0
 30
0.0
 11
-843.0
 21
0.0
 31
0.0
  0
LINE
  5
205
330
1E
100
AcDbEntity
  8
OUTLINE
  6
CONTINUOUS
 62
     3
100
AcDbLine
 10
722.9999999999981
 20
156.0799999999999
 30
0.0
 11
836.999999999999
 21
188.0
 31
0.0
  0
LINE
  5
206
330
1E
100
AcDbEntity
  8
OUTLINE
  6
CONTINUOUS
 62
     3
100
AcDbLine
 10
722.9999999999981
 20
338.0
 30
0.0
 11
722.9999999999981
 21
45.0
 31
0.0
  0
LINE
  5
207
330
1E
100
AcDbEntity
  8
OUTLINE
  6
CONTINUOUS
 62
     3
100
AcDbLine
 10
772.9999999999981
 20
148.0
 30
0.0
 11
772.9999999999981
 21
145.7000000000006
 31
0.0
  0
LINE
  5
208
330
1E
100
AcDbEntity
  8
OUTLINE
  6
CONTINUOUS
 62
     3
100
AcDbLine
 10
722.9999999999981
 20
59.5
 30
0.0
 11
752.9999999999981
 21
59.49999999999818
 31
0.0
  0
LINE
  5
209
330
1E
100
AcDbEntity
  8
OUTLINE
  6
CONTINUOUS
 62
     3
100
AcDbLine
 10
722.9999999999981
 20
84.50000000000001
 30
0.0
 11
752.9999999999981
 21
84.49999999999818
 31
0.0
  0
LINE
  5
20A
330
1E
100
AcDbEntity
  8
OUTLINE
  6
CONTINUOUS
 62
     3
100
AcDbLine
 10
752.9999999999981
 20
84.50000000000001
 30
0.0
 11
752.9999999999981
 21
59.5
 31
0.0
  0
LINE
  5
20B
330
1E
100
AcDbEntity
  8
OUTLINE
  6
CONTINUOUS
 62
     3
100
AcDbLine
 10
772.9999999999981
 20
148.0
 30
0.0
 11
722.9999999999981
 21
148.0
 31
0.0
  0
LINE
  5
20C
330
1E
100
AcDbEntity
  8
OUTLINE
  6
CONTINUOUS
 62
     3
100
AcDbLine
 10
772.9999999999981
 20
145.6999999999989
 30
0.0
 11
722.9999999999981
 21
145.6999999999989
 31
0.0
  0
ARC
  5
20D
330
1E
100
AcDbEntity
  8
OUTLINE
  6
CONTINUOUS
 62
     3
100
AcDbCircle
 10
868.0
 20
-1.0
 30
0.0
 40
7.0
100
AcDbArc
 50
270.0
 51
0.0
  0
LINE
  5
20E
330
1E
100
AcDbEntity
  8
OUTLINE
  6
CONTINUOUS
 62
     3
100
AcDbLine
 10
875.0
 20
0.0
 30
0.0
 11
875.0
 21
-1.0
 31
0.0
  0
LINE
  5
20F
330
1E
100
AcDbEntity
  8
OUTLINE
  6
CONTINUOUS
 62
     3
100
AcDbLine
 10
843.0
 20
45.0
 30
0.0
 11
843.0
 21
0.0
 31
0.0
  0
LINE
  5
210
330
1E
100
AcDbEntity
  8
OUTLINE
  6
CONTINUOUS
 62
     3
100
AcDbLine
 10
722.9999999999981
 20
237.999999999998
 30
0.0
 11
836.999999999999
 21
237.999999999998
 31
0.0
  0
LINE
  5
211
330
1E
100
AcDbEntity
  8
OUTLINE
  6
CONTINUOUS
 62
     3
100
AcDbLine
 10
836.999999999999
 20
237.999999999998
 30
0.0
 11
836.9999999999981
 21
188.0
 31
0.0
  0
LINE
  5
212
330
1E
100
AcDbEntity
  8
SIZE
  6
CONTINUOUS
 62
    30
100
AcDbLine
 10
722.9999999999985
 20
357.999999999998
 30
0.0
 11
722.9999999999985
 21
758.1090150111394
 31
0.0
  0
LINE
  5
213
330
1E
100
AcDbEntity
  8
SIZE
  6
CONTINUOUS
 62
    30
100
AcDbLine
 10
0.0000000000000012
 20
415.8640659999996
 30
0.0
 11
0.0000000000000222
 21
758.1090150111394
 31
0.0
  0
LINE
  5
214
330
1E
100
AcDbEntity
  8
SIZE
  6
CONTINUOUS
 62
    30
100
AcDbLine
 10
712.9999999999985
 20
728.1090150111395
 30
0.0
 11
10.00000000000001
 21
728.1090150111395
 31
0.0
  0
CIRCLE
  5
215
330
1E
100
AcDbEntity
  8
SIZE
  6
CONTINUOUS
 62
    30
100
AcDbCircle
 10
722.9999999999985
 20
728.1090150111395
 30
0.0
 40
5.0
  0
LINE
  5
216
330
1E
100
AcDbEntity
  8
SIZE
  6
CONTINUOUS
 62
    30
100
AcDbLine
 10
717.9999999999985
 20
728.1090150111395
 30
0.0
 11
712.9999999999985
 21
728.1090150111395
 31
0.0
  0
CIRCLE
  5
217
330
1E
100
AcDbEntity
  8
SIZE
  6
CONTINUOUS
 62
    30
100
AcDbCircle
 10
0.0000000000000203
 20
728.1090150111395
 30
0.0
 40
5.0
  0
LINE
  5
218
330
1E
100
AcDbEntity
  8
SIZE
  6
CONTINUOUS
 62
    30
100
AcDbLine
 10
5.00000000000002
 20
728.1090150111395
 30
0.0
 11
10.00000000000001
 21
728.1090150111395
 31
0.0
  0
TEXT
  5
219
330
1E
100
AcDbEntity
  8
SIZE
  6
CONTINUOUS
 62
    30
100
AcDbText
 10
287.4428571428564
 20
748.1090150111395
 30
0.0
 40
64.0
  1
723
 41
0.9
 72
     1
 11
361.4999999999992
 21
748.1090150111395
 31
0.0
100
AcDbText
  0
POINT
  5
21A
330
1E
100
AcDbEntity
  8
DEFPOINTS
  6
CONTINUOUS
 62
     7
100
AcDbPoint
 10
722.9999999999985
 20
337.999999999998
 30
0.0
  0
POINT
  5
21B
330
1E
100
AcDbEntity
  8
DEFPOINTS
  6
CONTINUOUS
 62
     7
100
AcDbPoint
 10
0.0
 20
395.8640659999996
 30
0.0
  0
POINT
  5
21C
330
1E
100
AcDbEntity
  8
DEFPOINTS
  6
CONTINUOUS
 62
     7
100
AcDbPoint
 10
0.0000000000000203
 20
728.1090150111395
 30
0.0
  0
ENDSEC
  0
SECTION
  2
OBJECTS
  0
DICTIONARY
  5
C
330
0
100
AcDbDictionary
  3
ACAD_GROUP
350
D
  3
ACAD_LAYOUT
350
19
  3
ACAD_MLINESTYLE
350
16
  3
ACAD_PLOTSETTINGS
350
18
  3
ACAD_PLOTSTYLENAME
350
E
  3
ACDBHEADERROUNDTRIPXREC
350
21F
  0
DICTIONARY
  5
242
330
1E
100
AcDbDictionary
280
     1
  3
ACAD_LAYOUTSELFREF
360
243
  0
DICTIONARY
  5
240
330
1A
100
AcDbDictionary
280
     1
  3
ACAD_LAYOUTSELFREF
360
241
  0
DICTIONARY
  5
D
102
{ACAD_REACTORS
330
C
102
}
330
C
100
AcDbDictionary
  0
DICTIONARY
  5
19
102
{ACAD_REACTORS
330
C
102
}
330
C
100
AcDbDictionary
  0
DICTIONARY
  5
16
102
{ACAD_REACTORS
330
C
102
}
330
C
100
AcDbDictionary
  3
STANDARD
350
17
  0
DICTIONARY
  5
18
102
{ACAD_REACTORS
330
C
102
}
330
C
100
AcDbDictionary
  0
ACDBDICTIONARYWDFLT
  5
E
102
{ACAD_REACTORS
330
C
102
}
330
C
100
AcDbDictionary
281
     1
  3
Normal
350
F
100
AcDbDictionaryWithDefault
340
F
  0
DICTIONARY
  5
21F
102
{ACAD_REACTORS
330
C
102
}
330
C
100
AcDbDictionary
  3
CEPSNTYPE
350
229
  3
DIMSTYLEDATA
350
22D
  3
FINGERPRINTGUID
350
22A
  3
HYPERLINKBASE
350
222
  3
INSUNITS
350
228
  3
LAYOUTDICT
350
224
  3
LWETCUNION
350
227
  3
PLOTSETDICT
350
225
  3
PLOTSTYLNAMDICT
350
226
  3
PSVPSCALE
350
22C
  3
PUCSBASE
350
230
  3
PUCSORGBACK
350
236
  3
PUCSORGBOTTOM
350
232
  3
PUCSORGFRONT
350
235
  3
PUCSORGLEFT
350
233
  3
PUCSORGRIGHT
350
234
  3
PUCSORGTOP
350
231
  3
PUCSORTHOREF
350
22E
  3
PUCSORTHOVIEW
350
22F
  3
STYLESHEET
350
223
  3
TSTACKALIGN
350
220
  3
TSTACKSIZE
350
221
  3
UCSBASE
350
239
  3
UCSORGBACK
350
23F
  3
UCSORGBOTTOM
350
23B
  3
UCSORGFRONT
350
23E
  3
UCSORGLEFT
350
23C
  3
UCSORGRIGHT
350
23D
  3
UCSORGTOP
350
23A
  3
UCSORTHOREF
350
237
  3
UCSORTHOVIEW
350
238
  3
VERSIONGUID
350
22B
  0
XRECORD
  5
243
102
{ACAD_REACTORS
330
242
102
}
330
242
100
AcDbXrecord
340
1E
  0
XRECORD
  5
241
102
{ACAD_REACTORS
330
240
102
}
330
240
100
AcDbXrecord
340
1A
  0
MLINESTYLE
  5
17
102
{ACAD_REACTORS
330
16
102
}
330
16
100
AcDbMlineStyle
  2
STANDARD
 70
     0
  3

 62
   256
 51
90.0
 52
90.0
 71
     2
 49
0.5
 62
   256
  6
BYLAYER
 49
-0.5
 62
   256
  6
BYLAYER
  0
ACDBPLACEHOLDER
  5
F
102
{ACAD_REACTORS
330
E
102
}
330
E
100
AcDbPlaceHolder
280
     0
  0
XRECORD
  5
229
102
{ACAD_REACTORS
330
21F
102
}
330
21F
100
AcDbXrecord
 90
        0
  0
XRECORD
  5
22D
102
{ACAD_REACTORS
330
21F
102
}
330
21F
100
AcDbXrecord
1000
DSTYLE
1002
{
1070
   341
340
39
1070
   342
340
39
1070
   343
340
39
1070
   344
340
34
1002
}
  0
XRECORD
  5
22A
102
{ACAD_REACTORS
330
21F
102
}
330
21F
100
AcDbXrecord
  1
{021ADCAC-59B3-4CC1-8985-C8AD5CAE84E0}
  0
XRECORD
  5
222
102
{ACAD_REACTORS
330
21F
102
}
330
21F
100
AcDbXrecord
  1

  0
XRECORD
  5
228
102
{ACAD_REACTORS
330
21F
102
}
330
21F
100
AcDbXrecord
 90
        0
  0
XRECORD
  5
224
102
{ACAD_REACTORS
330
21F
102
}
330
21F
100
AcDbXrecord
340
19
  0
XRECORD
  5
227
102
{ACAD_REACTORS
330
21F
102
}
330
21F
100
AcDbXrecord
 90
    10781
  0
XRECORD
  5
225
102
{ACAD_REACTORS
330
21F
102
}
330
21F
100
AcDbXrecord
340
18
  0
XRECORD
  5
226
102
{ACAD_REACTORS
330
21F
102
}
330
21F
100
AcDbXrecord
340
E
  0
XRECORD
  5
22C
102
{ACAD_REACTORS
330
21F
102
}
330
21F
100
AcDbXrecord
 40
0.0
  0
XRECORD
  5
230
102
{ACAD_REACTORS
330
21F
102
}
330
21F
100
AcDbXrecord
340
0
  0
XRECORD
  5
236
102
{ACAD_REACTORS
330
21F
102
}
330
21F
100
AcDbXrecord
 10
0.0
 20
0.0
 30
0.0
  0
XRECORD
  5
232
102
{ACAD_REACTORS
330
21F
102
}
330
21F
100
AcDbXrecord
 10
0.0
 20
0.0
 30
0.0
  0
XRECORD
  5
235
102
{ACAD_REACTORS
330
21F
102
}
330
21F
100
AcDbXrecord
 10
0.0
 20
0.0
 30
0.0
  0
XRECORD
  5
233
102
{ACAD_REACTORS
330
21F
102
}
330
21F
100
AcDbXrecord
 10
0.0
 20
0.0
 30
0.0
  0
XRECORD
  5
234
102
{ACAD_REACTORS
330
21F
102
}
330
21F
100
AcDbXrecord
 10
0.0
 20
0.0
 30
0.0
  0
XRECORD
  5
231
102
{ACAD_REACTORS
330
21F
102
}
330
21F
100
AcDbXrecord
 10
0.0
 20
0.0
 30
0.0
  0
XRECORD
  5
22E
102
{ACAD_REACTORS
330
21F
102
}
330
21F
100
AcDbXrecord
340
0
  0
XRECORD
  5
22F
102
{ACAD_REACTORS
330
21F
102
}
330
21F
100
AcDbXrecord
 70
     0
  0
XRECORD
  5
223
102
{ACAD_REACTORS
330
21F
102
}
330
21F
100
AcDbXrecord
  1

  0
XRECORD
  5
220
102
{ACAD_REACTORS
330
21F
102
}
330
21F
100
AcDbXrecord
 90
        1
  0
XRECORD
  5
221
102
{ACAD_REACTORS
330
21F
102
}
330
21F
100
AcDbXrecord
 90
       70
  0
XRECORD
  5
239
102
{ACAD_REACTORS
330
21F
102
}
330
21F
100
AcDbXrecord
340
0
  0
XRECORD
  5
23F
102
{ACAD_REACTORS
330
21F
102
}
330
21F
100
AcDbXrecord
 10
0.0
 20
0.0
 30
0.0
  0
XRECORD
  5
23B
102
{ACAD_REACTORS
330
21F
102
}
330
21F
100
AcDbXrecord
 10
0.0
 20
0.0
 30
0.0
  0
XRECORD
  5
23E
102
{ACAD_REACTORS
330
21F
102
}
330
21F
100
AcDbXrecord
 10
0.0
 20
0.0
 30
0.0
  0
XRECORD
  5
23C
102
{ACAD_REACTORS
330
21F
102
}
330
21F
100
AcDbXrecord
 10
0.0
 20
0.0
 30
0.0
  0
XRECORD
  5
23D
102
{ACAD_REACTORS
330
21F
102
}
330
21F
100
AcDbXrecord
 10
0.0
 20
0.0
 30
0.0
  0
XRECORD
  5
23A
102
{ACAD_REACTORS
330
21F
102
}
330
21F
100
AcDbXrecord
 10
0.0
 20
0.0
 30
0.0
  0
XRECORD
  5
237
102
{ACAD_REACTORS
330
21F
102
}
330
21F
100
AcDbXrecord
340
0
  0
XRECORD
  5
238
102
{ACAD_REACTORS
330
21F
102
}
330
21F
100
AcDbXrecord
 70
     0
  0
XRECORD
  5
22B
102
{ACAD_REACTORS
330
21F
102
}
330
21F
100
AcDbXrecord
  1
{62566A91-C209-4B79-ADF5-F791CF2541AF}
  0
ENDSEC
  0
EOF
