  0
SECTION
  2
HEADER
  9
$ACADVER
  1
AC1014
  9
$ACADMAINTVER
 70
     9
  9
$DWGCODEPAGE
  3
ANSI_932
  9
$INSBASE
 10
0.0
 20
0.0
 30
0.0
  9
$EXTMIN
 10
-1377.827487815826
 20
-736.834238217079
 30
0.0
  9
$EXTMAX
 10
1553.114707535492
 20
1316.05416737488
 30
0.0
  9
$LIMMIN
 10
-4200.0
 20
-2970.0
  9
$LIMMAX
 10
4200.0
 20
2970.0
  9
$ORTHOMODE
 70
     0
  9
$REGENMODE
 70
     1
  9
$FILLMODE
 70
     1
  9
$QTEXTMODE
 70
     0
  9
$MIRRTEXT
 70
     0
  9
$DRAGMODE
 70
     2
  9
$LTSCALE
 40
20.0
  9
$OSMODE
 70
    37
  9
$ATTMODE
 70
     1
  9
$TEXTSIZE
 40
64.0
  9
$TRACEWID
 40
0.05
  9
$TEXTSTYLE
  7
STANDARD
  9
$CLAYER
  8
0
  9
$CELTYPE
  6
CONTINUOUS
  9
$CECOLOR
 62
     7
  9
$CELTSCALE
 40
1.0
  9
$DELOBJ
 70
     1
  9
$DISPSILH
 70
     0
  9
$DIMSCALE
 40
1.0
  9
$DIMASZ
 40
10.0
  9
$DIMEXO
 40
20.0
  9
$DIMDLI
 40
200.0
  9
$DIMRND
 40
0.0
  9
$DIMDLE
 40
0.0
  9
$DIMEXE
 40
30.0
  9
$DIMTP
 40
0.0
  9
$DIMTM
 40
0.0
  9
$DIMTXT
 40
64.0
  9
$DIMCEN
 40
0.0
  9
$DIMTSZ
 40
0.0
  9
$DIMTOL
 70
     0
  9
$DIMLIM
 70
     0
  9
$DIMTIH
 70
     0
  9
$DIMTOH
 70
     0
  9
$DIMSE1
 70
     0
  9
$DIMSE2
 70
     0
  9
$DIMTAD
 70
     1
  9
$DIMZIN
 70
     8
  9
$DIMBLK
  1
DOTBLANK
  9
$DIMASO
 70
     1
  9
$DIMSHO
 70
     0
  9
$DIMPOST
  1

  9
$DIMAPOST
  1

  9
$DIMALT
 70
     0
  9
$DIMALTD
 70
     2
  9
$DIMALTF
 40
25.4
  9
$DIMLFAC
 40
1.0
  9
$DIMTOFL
 70
     1
  9
$DIMTVP
 40
0.0
  9
$DIMTIX
 70
     1
  9
$DIMSOXD
 70
     0
  9
$DIMSAH
 70
     0
  9
$DIMBLK1
  1
DOTBLANK
  9
$DIMBLK2
  1
ORIGIN
  9
$DIMSTYLE
  2
STANDARD
  9
$DIMCLRD
 70
     0
  9
$DIMCLRE
 70
     0
  9
$DIMCLRT
 70
     0
  9
$DIMTFAC
 40
1.0
  9
$DIMGAP
 40
0.09
  9
$DIMJUST
 70
     0
  9
$DIMSD1
 70
     0
  9
$DIMSD2
 70
     0
  9
$DIMTOLJ
 70
     1
  9
$DIMTZIN
 70
     0
  9
$DIMALTZ
 70
     0
  9
$DIMALTTZ
 70
     0
  9
$DIMFIT
 70
     3
  9
$DIMUPT
 70
     0
  9
$DIMUNIT
 70
     2
  9
$DIMDEC
 70
     4
  9
$DIMTDEC
 70
     4
  9
$DIMALTU
 70
     2
  9
$DIMALTTD
 70
     2
  9
$DIMTXSTY
  7
STANDARD
  9
$DIMAUNIT
 70
     0
  9
$LUNITS
 70
     2
  9
$LUPREC
 70
     4
  9
$SKETCHINC
 40
0.1
  9
$FILLETRAD
 40
0.0
  9
$AUNITS
 70
     1
  9
$AUPREC
 70
     3
  9
$MENU
  1
ACAD
  9
$ELEVATION
 40
0.0
  9
$PELEVATION
 40
0.0
  9
$THICKNESS
 40
0.0
  9
$LIMCHECK
 70
     0
  9
$BLIPMODE
 70
     0
  9
$CHAMFERA
 40
0.0
  9
$CHAMFERB
 40
0.0
  9
$CHAMFERC
 40
0.0
  9
$CHAMFERD
 40
0.0
  9
$SKPOLY
 70
     0
  9
$TDCREATE
 40
2449761.493622685
  9
$TDUPDATE
 40
2453973.715021411
  9
$TDINDWG
 40
1.0192833912
  9
$TDUSRTIMER
 40
1.0192832176
  9
$USRTIMER
 70
     1
  9
$ANGBASE
 50
0.0
  9
$ANGDIR
 70
     0
  9
$PDMODE
 70
    35
  9
$PDSIZE
 40
100.0
  9
$PLINEWID
 40
0.0
  9
$COORDS
 70
     0
  9
$SPLFRAME
 70
     0
  9
$SPLINETYPE
 70
     6
  9
$SPLINESEGS
 70
     8
  9
$ATTDIA
 70
     0
  9
$ATTREQ
 70
     1
  9
$HANDLING
 70
-16383
  9
$HANDSEED
  5
23A
  9
$SURFTAB1
 70
     6
  9
$SURFTAB2
 70
     6
  9
$SURFTYPE
 70
     6
  9
$SURFU
 70
     6
  9
$SURFV
 70
     6
  9
$UCSNAME
  2

  9
$UCSORG
 10
0.0
 20
0.0
 30
0.0
  9
$UCSXDIR
 10
1.0
 20
0.0
 30
0.0
  9
$UCSYDIR
 10
0.0
 20
1.0
 30
0.0
  9
$PUCSNAME
  2

  9
$PUCSORG
 10
0.0
 20
0.0
 30
0.0
  9
$PUCSXDIR
 10
1.0
 20
0.0
 30
0.0
  9
$PUCSYDIR
 10
0.0
 20
1.0
 30
0.0
  9
$USERI1
 70
     0
  9
$USERI2
 70
     0
  9
$USERI3
 70
     0
  9
$USERI4
 70
     0
  9
$USERI5
 70
     0
  9
$USERR1
 40
20.0
  9
$USERR2
 40
0.0
  9
$USERR3
 40
0.0
  9
$USERR4
 40
0.0
  9
$USERR5
 40
0.0
  9
$WORLDVIEW
 70
     1
  9
$SHADEDGE
 70
     3
  9
$SHADEDIF
 70
    70
  9
$TILEMODE
 70
     1
  9
$MAXACTVP
 70
    64
  9
$PINSBASE
 10
0.0
 20
0.0
 30
0.0
  9
$PLIMCHECK
 70
     0
  9
$PEXTMIN
 10
1.000000000000000E+20
 20
1.000000000000000E+20
 30
1.000000000000000E+20
  9
$PEXTMAX
 10
-1.000000000000000E+20
 20
-1.000000000000000E+20
 30
-1.000000000000000E+20
  9
$PLIMMIN
 10
0.0
 20
0.0
  9
$PLIMMAX
 10
12.0
 20
9.0
  9
$UNITMODE
 70
     0
  9
$VISRETAIN
 70
     1
  9
$PLINEGEN
 70
     0
  9
$PSLTSCALE
 70
     1
  9
$TREEDEPTH
 70
  3020
  9
$PICKSTYLE
 70
     0
  9
$CMLSTYLE
  2
STANDARD
  9
$CMLJUST
 70
     0
  9
$CMLSCALE
 40
1.0
  9
$PROXYGRAPHICS
 70
     1
  9
$MEASUREMENT
 70
     0
  0
ENDSEC
  0
SECTION
  2
CLASSES
  0
CLASS
  1
ACDBDICTIONARYWDFLT
  2
AcDbDictionaryWithDefault
  3
AutoCAD 2000
 90
        0
280
     0
281
     0
  0
CLASS
  1
ACDBPLACEHOLDER
  2
AcDbPlaceHolder
  3
AutoCAD 2000
 90
        0
280
     0
281
     0
  0
CLASS
  1
LAYOUT
  2
AcDbLayout
  3
AutoCAD 2000
 90
        0
280
     0
281
     0
  0
CLASS
  1
LONG_TRANSACTION
  2
AcDbLongTransaction
  3
AutoCAD 2000
 90
        0
280
     0
281
     0
  0
CLASS
  1
LWPOLYLINE
  2
AcDbPolyline
  3
AutoCAD 2000
 90
        0
280
     0
281
     1
  0
CLASS
  1
HATCH
  2
AcDbHatch
  3
AutoCAD 2000
 90
        0
280
     0
281
     1
  0
CLASS
  1
XRECORD
  2
AcDbXrecord
  3
AutoCAD 2000
 90
        0
280
     0
281
     0
  0
ENDSEC
  0
SECTION
  2
TABLES
  0
TABLE
  2
VPORT
  5
8
330
0
100
AcDbSymbolTable
 70
     2
  0
VPORT
  5
214
330
8
100
AcDbSymbolTableRecord
100
AcDbViewportTableRecord
  2
*ACTIVE
 70
     0
 10
0.0
 20
0.0
 11
1.0
 21
1.0
 12
196.5870514587081
 22
289.7824143256657
 13
0.0
 23
0.0
 14
50.0
 24
50.0
 15
100.0
 25
100.0
 16
0.0
 26
0.0
 36
1.0
 17
0.0
 27
0.0
 37
0.0
 40
2070.316794795985
 41
1.657997399219765
 42
50.0
 43
0.0
 44
0.0
 50
0.0
 51
0.0
 71
     0
 72
  1000
 73
     1
 74
     0
 75
     0
 76
     0
 77
     0
 78
     0
  0
ENDTAB
  0
TABLE
  2
LTYPE
  5
5
330
0
100
AcDbSymbolTable
 70
     2
  0
LTYPE
  5
13
330
5
100
AcDbSymbolTableRecord
100
AcDbLinetypeTableRecord
  2
BYBLOCK
 70
     0
  3

 72
    65
 73
     0
 40
0.0
  0
LTYPE
  5
14
330
5
100
AcDbSymbolTableRecord
100
AcDbLinetypeTableRecord
  2
BYLAYER
 70
     0
  3

 72
    65
 73
     0
 40
0.0
  0
LTYPE
  5
15
330
5
100
AcDbSymbolTableRecord
100
AcDbLinetypeTableRecord
  2
CONTINUOUS
 70
     0
  3
????
 72
    65
 73
     0
 40
0.0
  0
LTYPE
  5
22
330
5
100
AcDbSymbolTableRecord
100
AcDbLinetypeTableRecord
  2
DASHDOT
 70
     0
  3
____ _ ____ _ ____ _ ____ _ ____ _ ____ _ ____
 72
    65
 73
     4
 40
5.5
 49
4.0
 74
     0
 49
-0.6
 74
     0
 49
0.3
 74
     0
 49
-0.6
 74
     0
  0
ENDTAB
  0
TABLE
  2
LAYER
  5
2
330
0
100
AcDbSymbolTable
 70
    12
  0
LAYER
  5
10
330
2
100
AcDbSymbolTableRecord
100
AcDbLayerTableRecord
  2
0
 70
     0
 62
     7
  6
CONTINUOUS
  0
LAYER
  5
23
330
2
100
AcDbSymbolTableRecord
100
AcDbLayerTableRecord
  2
OUTLINE
 70
     0
 62
     3
  6
CONTINUOUS
  0
LAYER
  5
24
330
2
100
AcDbSymbolTableRecord
100
AcDbLayerTableRecord
  2
DETAIL
 70
     0
 62
     5
  6
CONTINUOUS
  0
LAYER
  5
25
330
2
100
AcDbSymbolTableRecord
100
AcDbLayerTableRecord
  2
BASIS
 70
     0
 62
     6
  6
DASHDOT
  0
LAYER
  5
26
330
2
100
AcDbSymbolTableRecord
100
AcDbLayerTableRecord
  2
SIZE
 70
     0
 62
    30
  6
CONTINUOUS
  0
LAYER
  5
27
330
2
100
AcDbSymbolTableRecord
100
AcDbLayerTableRecord
  2
NOTE
 70
     0
 62
     4
  6
CONTINUOUS
  0
LAYER
  5
28
330
2
100
AcDbSymbolTableRecord
100
AcDbLayerTableRecord
  2
ARRANGE
 70
     0
 62
     1
  6
CONTINUOUS
  0
LAYER
  5
29
330
2
100
AcDbSymbolTableRecord
100
AcDbLayerTableRecord
  2
FIX
 70
     0
 62
    11
  6
CONTINUOUS
  0
LAYER
  5
2A
330
2
100
AcDbSymbolTableRecord
100
AcDbLayerTableRecord
  2
SERVICESPACE
 70
     0
 62
     2
  6
DASHDOT
  0
LAYER
  5
2B
330
2
100
AcDbSymbolTableRecord
100
AcDbLayerTableRecord
  2
ETC
 70
     0
 62
    61
  6
CONTINUOUS
  0
LAYER
  5
2C
330
2
100
AcDbSymbolTableRecord
100
AcDbLayerTableRecord
  2
SYMBOLLINE
 70
     0
 62
    15
  6
CONTINUOUS
  0
LAYER
  5
2D
330
2
100
AcDbSymbolTableRecord
100
AcDbLayerTableRecord
  2
DEFPOINTS
 70
     0
 62
     7
  6
CONTINUOUS
  0
ENDTAB
  0
TABLE
  2
STYLE
  5
3
330
0
100
AcDbSymbolTable
 70
     2
  0
STYLE
  5
11
330
3
100
AcDbSymbolTableRecord
100
AcDbTextStyleTableRecord
  2
STANDARD
 70
     0
 40
0.0
 41
0.9
 50
0.0
 71
     0
 42
64.0
  3
SIMPLEX
  4
BIGFONT
  0
STYLE
  5
2E
330
3
100
AcDbSymbolTableRecord
100
AcDbTextStyleTableRecord
  2
STANDARD1
 70
     0
 40
0.0
 41
1.0
 50
0.0
 71
     0
 42
64.0
  3
MONOTXT
  4
BIGFONT
  0
ENDTAB
  0
TABLE
  2
VIEW
  5
6
330
0
100
AcDbSymbolTable
 70
     1
  0
VIEW
  5
2F
330
6
100
AcDbSymbolTableRecord
100
AcDbViewTableRecord
  2
ALL
 70
     0
 40
6056.230032000001
 10
0.0
 20
58.11501599999999
 41
8400.0
 11
0.0
 21
0.0
 31
1.0
 12
0.0
 22
0.0
 32
0.0
 42
50.0
 43
0.0
 44
0.0
 50
0.0
 71
     0
  0
ENDTAB
  0
TABLE
  2
UCS
  5
7
330
0
100
AcDbSymbolTable
 70
     0
  0
ENDTAB
  0
TABLE
  2
APPID
  5
9
330
0
100
AcDbSymbolTable
 70
     1
  0
APPID
  5
12
330
9
100
AcDbSymbolTableRecord
100
AcDbRegAppTableRecord
  2
ACAD
 70
     0
  0
ENDTAB
  0
TABLE
  2
DIMSTYLE
  5
A
330
0
100
AcDbSymbolTable
 70
     1
  0
DIMSTYLE
105
213
330
A
100
AcDbSymbolTableRecord
100
AcDbDimStyleTableRecord
  2
STANDARD
 70
     0
  3

  4

  5

  6

  7

 40
1.0
 41
0.18
 42
0.0625
 43
0.38
 44
0.18
 45
0.0
 46
0.0
 47
0.0
 48
0.0
140
0.18
141
0.09
142
0.0
143
25.4
144
1.0
145
0.0
146
1.0
147
0.09
 71
     0
 72
     0
 73
     1
 74
     1
 75
     0
 76
     0
 77
     0
 78
     0
170
     0
171
     2
172
     0
173
     0
174
     0
175
     0
176
     0
177
     0
178
     0
270
     2
271
     4
272
     4
273
     2
274
     2
340
11
275
     0
280
     0
281
     0
282
     0
283
     1
284
     0
285
     0
286
     0
287
     3
288
     0
  0
ENDTAB
  0
TABLE
  2
BLOCK_RECORD
  5
1
330
0
100
AcDbSymbolTable
 70
     2
  0
BLOCK_RECORD
  5
1E
102
{ACAD_XDICTIONARY
360
238
102
}
330
1
100
AcDbSymbolTableRecord
100
AcDbBlockTableRecord
  2
*MODEL_SPACE
  0
BLOCK_RECORD
  5
1A
102
{ACAD_XDICTIONARY
360
236
102
}
330
1
100
AcDbSymbolTableRecord
100
AcDbBlockTableRecord
  2
*PAPER_SPACE
  0
BLOCK_RECORD
  5
34
330
1
100
AcDbSymbolTableRecord
100
AcDbBlockTableRecord
  2
_ORIGIN
  0
BLOCK_RECORD
  5
39
330
1
100
AcDbSymbolTableRecord
100
AcDbBlockTableRecord
  2
_DOTBLANK
  0
ENDTAB
  0
ENDSEC
  0
SECTION
  2
BLOCKS
  0
BLOCK
  5
1F
330
1E
100
AcDbEntity
  8
0
100
AcDbBlockBegin
  2
*MODEL_SPACE
 70
     0
 10
0.0
 20
0.0
 30
0.0
  3
*MODEL_SPACE
  1

  0
ENDBLK
  5
20
330
1E
100
AcDbEntity
  8
0
100
AcDbBlockEnd
  0
BLOCK
  5
1B
330
1A
100
AcDbEntity
 67
     1
  8
0
100
AcDbBlockBegin
  2
*PAPER_SPACE
 70
     0
 10
0.0
 20
0.0
 30
0.0
  3
*PAPER_SPACE
  1

  0
ENDBLK
  5
1C
330
1A
100
AcDbEntity
 67
     1
  8
0
100
AcDbBlockEnd
  0
BLOCK
  5
35
330
34
100
AcDbEntity
  8
0
100
AcDbBlockBegin
  2
_ORIGIN
 70
     0
 10
0.0
 20
0.0
 30
0.0
  3
_ORIGIN
  1

  0
CIRCLE
  5
36
330
34
100
AcDbEntity
  8
0
  6
CONTINUOUS
 62
     7
100
AcDbCircle
 10
0.0
 20
0.0
 30
0.0
 40
0.5
  0
LINE
  5
37
330
34
100
AcDbEntity
  8
0
  6
CONTINUOUS
 62
     7
100
AcDbLine
 10
-0.5
 20
0.0
 30
0.0
 11
-1.0
 21
0.0
 31
0.0
  0
ENDBLK
  5
38
330
34
100
AcDbEntity
  8
0
100
AcDbBlockEnd
  0
BLOCK
  5
3A
330
39
100
AcDbEntity
  8
0
100
AcDbBlockBegin
  2
_DOTBLANK
 70
     0
 10
0.0
 20
0.0
 30
0.0
  3
_DOTBLANK
  1

  0
CIRCLE
  5
3B
330
39
100
AcDbEntity
  8
0
  6
CONTINUOUS
 62
     7
100
AcDbCircle
 10
0.0
 20
0.0
 30
0.0
 40
0.5
  0
LINE
  5
3C
330
39
100
AcDbEntity
  8
0
  6
CONTINUOUS
 62
     7
100
AcDbLine
 10
-0.5
 20
0.0
 30
0.0
 11
-1.0
 21
0.0
 31
0.0
  0
ENDBLK
  5
3D
330
39
100
AcDbEntity
  8
0
100
AcDbBlockEnd
  0
ENDSEC
  0
SECTION
  2
ENTITIES
  0
TEXT
  5
3E
330
1E
100
AcDbEntity
  8
0
  6
CONTINUOUS
 62
     7
100
AcDbText
 10
12761.29
 20
1934.172
 30
0.0
 40
3.2
  1
 
 50
0.000003
 41
0.5989580000000001
  7
STANDARD1
100
AcDbText
  0
LINE
  5
3F
330
1E
100
AcDbEntity
  8
DETAIL
  6
CONTINUOUS
 62
     5
100
AcDbLine
 10
472.999999999998
 20
338.0000000000003
 30
0.0
 11
-473.0000000000003
 21
337.9999999999995
 31
0.0
  0
CIRCLE
  5
40
330
1E
100
AcDbEntity
  8
ARRANGE
  6
CONTINUOUS
 62
     1
100
AcDbCircle
 10
0.0
 20
0.0
 30
0.0
 40
40.0
  0
LINE
  5
41
330
1E
100
AcDbEntity
  8
DETAIL
  6
CONTINUOUS
 62
     5
100
AcDbLine
 10
-473.0000000000003
 20
47.99999999999909
 30
0.0
 11
472.999999999998
 21
48.00000000000046
 31
0.0
  0
LINE
  5
42
330
1E
100
AcDbEntity
  8
DETAIL
  6
CONTINUOUS
 62
     5
100
AcDbLine
 10
592.9999999999997
 20
44.99999999999952
 30
0.0
 11
-593.0000000000005
 21
44.99999999999952
 31
0.0
  0
LINE
  5
43
330
1E
100
AcDbEntity
  8
DETAIL
  6
CONTINUOUS
 62
     5
100
AcDbLine
 10
624.9999999999996
 20
0.0
 30
0.0
 11
-625.0
 21
0.0
 31
0.0
  0
LINE
  5
44
330
1E
100
AcDbEntity
  8
DETAIL
  6
CONTINUOUS
 62
     5
100
AcDbLine
 10
617.9999999999997
 20
-8.0
 30
0.0
 11
-618.0
 21
-8.0
 31
0.0
  0
POINT
  5
45
330
1E
100
AcDbEntity
  8
ARRANGE
  6
CONTINUOUS
 62
     1
100
AcDbPoint
 10
0.0
 20
0.0
 30
0.0
  0
LINE
  5
46
330
1E
100
AcDbEntity
  8
DETAIL
  6
CONTINUOUS
 62
     5
100
AcDbLine
 10
-593.0
 20
45.0
 30
0.0
 11
-593.0
 21
0.0
 31
0.0
  0
LINE
  5
47
330
1E
100
AcDbEntity
  8
BASIS
  6
DASHDOT
 62
     6
100
AcDbLine
 10
0.0
 20
395.864066
 30
0.0
 11
0.0
 21
-76.41819699999998
 31
0.0
  0
ARC
  5
48
330
1E
100
AcDbEntity
  8
DETAIL
  6
CONTINUOUS
 62
     5
100
AcDbCircle
 10
-618.0
 20
-1.0
 30
0.0
 40
7.0
100
AcDbArc
 50
180.0
 51
270.0
  0
LINE
  5
49
330
1E
100
AcDbEntity
  8
DETAIL
  6
CONTINUOUS
 62
     5
100
AcDbLine
 10
-625.0
 20
-1.0
 30
0.0
 11
-625.0
 21
0.0
 31
0.0
  0
LINE
  5
4A
330
1E
100
AcDbEntity
  8
DETAIL
  6
CONTINUOUS
 62
     5
100
AcDbLine
 10
-473.0000000000008
 20
338.0
 30
0.0
 11
-473.0000000000008
 21
45.0
 31
0.0
  0
CIRCLE
  5
4B
330
1E
100
AcDbEntity
  8
FIX
  6
CONTINUOUS
 62
    11
100
AcDbCircle
 10
-497.0
 20
148.0
 30
0.0
 40
20.0
  0
LINE
  5
4C
330
1E
100
AcDbEntity
  8
NOTE
  6
CONTINUOUS
 62
     4
100
AcDbLine
 10
-477.0
 20
148.0
 30
0.0
 11
-517.0
 21
148.0
 31
0.0
  0
LWPOLYLINE
  5
4D
330
1E
100
AcDbEntity
  8
NOTE
  6
CONTINUOUS
 62
     4
100
AcDbPolyline
 90
        3
 70
     0
 43
0.0
 10
-504.6983773379129
 20
187.2521972717185
 10
-497.0
 20
148.0
 10
-523.2930889879853
 20
178.1442115709687
  0
LINE
  5
52
330
1E
100
AcDbEntity
  8
NOTE
  6
CONTINUOUS
 62
     4
100
AcDbLine
 10
-497.0
 20
148.0
 30
0.0
 11
-711.5672928158264
 21
586.3744267360134
 31
0.0
  0
LINE
  5
53
330
1E
100
AcDbEntity
  8
DETAIL
  6
CONTINUOUS
 62
     5
100
AcDbLine
 10
-473.0
 20
148.0
 30
0.0
 11
-523.0
 21
148.0
 31
0.0
  0
LINE
  5
54
330
1E
100
AcDbEntity
  8
DETAIL
  6
CONTINUOUS
 62
     5
100
AcDbLine
 10
-523.0
 20
148.0
 30
0.0
 11
-523.0
 21
145.7000000000001
 31
0.0
  0
LINE
  5
55
330
1E
100
AcDbEntity
  8
NOTE
  6
CONTINUOUS
 62
     4
100
AcDbLine
 10
-497.0
 20
128.0
 30
0.0
 11
-497.0
 21
168.0
 31
0.0
  0
LINE
  5
56
330
1E
100
AcDbEntity
  8
NOTE
  6
CONTINUOUS
 62
     4
100
AcDbLine
 10
586.9999999999985
 20
212.9999999999994
 30
0.0
 11
973.9036829999987
 21
-148.3351450000004
 31
0.0
  0
LINE
  5
57
330
1E
100
AcDbEntity
  8
NOTE
  6
CONTINUOUS
 62
     4
100
AcDbLine
 10
502.9999999999985
 20
71.99999999999954
 30
0.0
 11
917.4512243207566
 21
-575.3321279044643
 31
0.0
  0
LINE
  5
58
330
1E
100
AcDbEntity
  8
DETAIL
  6
CONTINUOUS
 62
     5
100
AcDbLine
 10
592.9999999999997
 20
44.99999999999952
 30
0.0
 11
592.9999999999997
 21
-0.0000000000004547
 31
0.0
  0
LINE
  5
59
330
1E
100
AcDbEntity
  8
NOTE
  6
CONTINUOUS
 62
     4
100
AcDbLine
 10
917.4512243207566
 20
-575.3321279044643
 30
0.0
 11
1095.442963320756
 21
-575.3321279044643
 31
0.0
  0
ARC
  5
5A
330
1E
100
AcDbEntity
  8
DETAIL
  6
CONTINUOUS
 62
     5
100
AcDbCircle
 10
617.9999999999997
 20
-1.000000000000454
 30
0.0
 40
7.0
100
AcDbArc
 50
270.0
 51
0.0
  0
LINE
  5
5B
330
1E
100
AcDbEntity
  8
DETAIL
  6
CONTINUOUS
 62
     5
100
AcDbLine
 10
624.9999999999996
 20
-0.0000000000004547
 30
0.0
 11
624.9999999999996
 21
-1.000000000000454
 31
0.0
  0
LINE
  5
5C
330
1E
100
AcDbEntity
  8
NOTE
  6
CONTINUOUS
 62
     4
100
AcDbLine
 10
973.9036829999987
 20
-148.3351450000004
 30
0.0
 11
1271.678999999998
 21
-148.3351450000004
 31
0.0
  0
TEXT
  5
5D
330
1E
100
AcDbEntity
  8
NOTE
  6
CONTINUOUS
 62
     4
100
AcDbText
 10
1009.493665910474
 20
-122.0872162825844
 30
0.0
 40
64.0
  1
CL,EL
 41
0.9
100
AcDbText
  0
TEXT
  5
5E
330
1E
100
AcDbEntity
  8
NOTE
  6
CONTINUOUS
 62
     4
100
AcDbText
 10
953.5946023207568
 20
-551.9962529044647
 30
0.0
 40
64.0
  1
D2
 41
0.9
100
AcDbText
  0
LINE
  5
5F
330
1E
100
AcDbEntity
  8
NOTE
  6
CONTINUOUS
 62
     4
100
AcDbLine
 10
539.9999999999985
 20
216.0
 30
0.0
 11
992.6977658081495
 21
583.7848652465035
 31
0.0
  0
LINE
  5
60
330
1E
100
AcDbEntity
  8
NOTE
  6
CONTINUOUS
 62
     4
100
AcDbLine
 10
545.9999999999985
 20
215.9999999999994
 30
0.0
 11
1042.757627535492
 21
-367.5340543476381
 31
0.0
  0
TEXT
  5
61
330
1E
100
AcDbEntity
  8
NOTE
  6
CONTINUOUS
 62
     4
100
AcDbText
 10
907.8590605253424
 20
806.7951478713142
 30
0.0
 40
64.0
  1
D1 VP-25
 41
0.9
100
AcDbText
  0
LINE
  5
62
330
1E
100
AcDbEntity
  8
NOTE
  6
CONTINUOUS
 62
     4
100
AcDbLine
 10
472.9999999999988
 20
277.9999999999994
 30
0.0
 11
874.1344389895676
 21
780.7862208713145
 31
0.0
  0
LINE
  5
63
330
1E
100
AcDbEntity
  8
NOTE
  6
CONTINUOUS
 62
     4
100
AcDbLine
 10
1349.649250989567
 20
780.7862208713145
 30
0.0
 11
874.1344389895676
 21
780.7862208713145
 31
0.0
  0
LINE
  5
64
330
1E
100
AcDbEntity
  8
DETAIL
  6
CONTINUOUS
 62
     5
100
AcDbLine
 10
472.9999999999985
 20
338.0
 30
0.0
 11
472.9999999999985
 21
45.0
 31
0.0
  0
LINE
  5
65
330
1E
100
AcDbEntity
  8
NOTE
  6
CONTINUOUS
 62
     4
100
AcDbLine
 10
606.9999999999985
 20
212.9999999999994
 30
0.0
 11
566.9999999999985
 21
212.9999999999994
 31
0.0
  0
LWPOLYLINE
  5
66
330
1E
100
AcDbEntity
  8
NOTE
  6
CONTINUOUS
 62
     4
100
AcDbPolyline
 90
        3
 70
     0
 43
0.0
 10
607.7224889999984
 20
178.7862829999994
 10
586.9999999999985
 20
212.9999999999994
 10
622.0530609999988
 20
193.7312959999993
  0
LINE
  5
6B
330
1E
100
AcDbEntity
  8
NOTE
  6
CONTINUOUS
 62
     4
100
AcDbLine
 10
586.9999999999985
 20
192.9999999999994
 30
0.0
 11
586.9999999999985
 21
232.9999999999994
 31
0.0
  0
LINE
  5
6C
330
1E
100
AcDbEntity
  8
DETAIL
  6
CONTINUOUS
 62
     5
100
AcDbLine
 10
586.9999999999992
 20
237.9999999999991
 30
0.0
 11
586.9999999999985
 21
187.9999999999994
 31
0.0
  0
LINE
  5
6D
330
1E
100
AcDbEntity
  8
DETAIL
  6
CONTINUOUS
 62
     5
100
AcDbLine
 10
472.999999999998
 20
59.49999999999954
 30
0.0
 11
502.9999999999985
 21
59.49999999999909
 31
0.0
  0
LINE
  5
6E
330
1E
100
AcDbEntity
  8
DETAIL
  6
CONTINUOUS
 62
     5
100
AcDbLine
 10
472.999999999998
 20
84.49999999999954
 30
0.0
 11
502.9999999999985
 21
84.49999999999906
 31
0.0
  0
LINE
  5
6F
330
1E
100
AcDbEntity
  8
NOTE
  6
CONTINUOUS
 62
     4
100
AcDbLine
 10
522.9999999999985
 20
71.99999999999954
 30
0.0
 11
482.9999999999984
 21
71.99999999999954
 31
0.0
  0
LINE
  5
70
330
1E
100
AcDbEntity
  8
NOTE
  6
CONTINUOUS
 62
     4
100
AcDbLine
 10
502.9999999999985
 20
51.99999999999954
 30
0.0
 11
502.9999999999985
 21
91.99999999999954
 31
0.0
  0
LWPOLYLINE
  5
71
330
1E
100
AcDbEntity
  8
NOTE
  6
CONTINUOUS
 62
     4
100
AcDbPolyline
 90
        3
 70
     0
 43
0.0
 10
515.0894404365558
 20
33.87067547728384
 10
502.9999999999985
 20
71.99999999999954
 10
532.5344252917439
 20
45.02375669835554
  0
LINE
  5
76
330
1E
100
AcDbEntity
  8
DETAIL
  6
CONTINUOUS
 62
     5
100
AcDbLine
 10
472.9999999999985
 20
237.9999999999991
 30
0.0
 11
586.9999999999992
 21
237.9999999999991
 31
0.0
  0
LINE
  5
77
330
1E
100
AcDbEntity
  8
DETAIL
  6
CONTINUOUS
 62
     5
100
AcDbLine
 10
502.9999999999985
 20
84.49999999999954
 30
0.0
 11
502.9999999999985
 21
59.49999999999954
 31
0.0
  0
CIRCLE
  5
78
330
1E
100
AcDbEntity
  8
FIX
  6
CONTINUOUS
 62
    11
100
AcDbCircle
 10
496.9999999999981
 20
148.0
 30
0.0
 40
20.0
  0
LINE
  5
79
330
1E
100
AcDbEntity
  8
NOTE
  6
CONTINUOUS
 62
     4
100
AcDbLine
 10
516.9999999999982
 20
148.0
 30
0.0
 11
476.999999999998
 21
148.0
 31
0.0
  0
LINE
  5
7A
330
1E
100
AcDbEntity
  8
DETAIL
  6
CONTINUOUS
 62
     5
100
AcDbLine
 10
522.999999999998
 20
148.0
 30
0.0
 11
472.999999999998
 21
148.0
 31
0.0
  0
LINE
  5
7B
330
1E
100
AcDbEntity
  8
NOTE
  6
CONTINUOUS
 62
     4
100
AcDbLine
 10
496.9999999999981
 20
128.0
 30
0.0
 11
496.9999999999981
 21
168.0
 31
0.0
  0
LINE
  5
7C
330
1E
100
AcDbEntity
  8
NOTE
  6
CONTINUOUS
 62
     4
100
AcDbLine
 10
565.9999999999985
 20
216.0
 30
0.0
 11
525.9999999999985
 21
216.0
 31
0.0
  0
LINE
  5
7D
330
1E
100
AcDbEntity
  8
NOTE
  6
CONTINUOUS
 62
     4
100
AcDbLine
 10
545.9999999999985
 20
196.0
 30
0.0
 11
545.9999999999985
 21
236.0
 31
0.0
  0
LINE
  5
7E
330
1E
100
AcDbEntity
  8
NOTE
  6
CONTINUOUS
 62
     4
100
AcDbLine
 10
559.9999999999985
 20
216.0
 30
0.0
 11
519.9999999999985
 21
216.0
 31
0.0
  0
LINE
  5
7F
330
1E
100
AcDbEntity
  8
NOTE
  6
CONTINUOUS
 62
     4
100
AcDbLine
 10
539.9999999999985
 20
196.0
 30
0.0
 11
539.9999999999985
 21
236.0
 31
0.0
  0
LWPOLYLINE
  5
80
330
1E
100
AcDbEntity
  8
NOTE
  6
CONTINUOUS
 62
     4
100
AcDbPolyline
 90
        3
 70
     0
 43
0.0
 10
576.4872907671912
 20
232.3913885633441
 10
539.9999999999985
 20
216.0
 10
563.4032267379561
 20
248.4390040129806
  0
LWPOLYLINE
  5
85
330
1E
100
AcDbEntity
  8
NOTE
  6
CONTINUOUS
 62
     4
100
AcDbPolyline
 90
        3
 70
     0
 43
0.0
 10
563.2066891758827
 20
179.8900313014087
 10
545.9999999999985
 20
215.9999999999994
 10
578.9564139115327
 20
193.3311940682196
  0
LINE
  5
8A
330
1E
100
AcDbEntity
  8
DETAIL
  6
CONTINUOUS
 62
     5
100
AcDbLine
 10
472.9999999999985
 20
156.0799999999999
 30
0.0
 11
586.9999999999992
 21
188.0
 31
0.0
  0
LINE
  5
8B
330
1E
100
AcDbEntity
  8
DETAIL
  6
CONTINUOUS
 62
     5
100
AcDbLine
 10
522.999999999998
 20
148.0
 30
0.0
 11
522.999999999998
 21
145.7000000000001
 31
0.0
  0
LWPOLYLINE
  5
8C
330
1E
100
AcDbEntity
  8
NOTE
  6
CONTINUOUS
 62
     4
100
AcDbPolyline
 90
        3
 70
     0
 43
0.0
 10
505.0006281124097
 20
301.9991628875331
 10
472.9999999999988
 20
277.9999999999994
 10
488.7137755867816
 20
314.7841982622903
  0
LINE
  5
91
330
1E
100
AcDbEntity
  8
NOTE
  6
CONTINUOUS
 62
     4
100
AcDbLine
 10
992.6977658081495
 20
583.7848652465035
 30
0.0
 11
1423.055205808148
 21
583.7848652465035
 31
0.0
  0
LINE
  5
92
330
1E
100
AcDbEntity
  8
NOTE
  6
CONTINUOUS
 62
     4
100
AcDbLine
 10
1042.757627535492
 20
-367.5340543476381
 30
0.0
 11
1553.114707535492
 21
-367.5340543476381
 31
0.0
  0
TEXT
  5
93
330
1E
100
AcDbEntity
  8
NOTE
  6
CONTINUOUS
 62
     4
100
AcDbText
 10
1023.949018733137
 20
612.411665542621
 30
0.0
 40
64.0
  1
RL %%c9.52
 41
0.9
100
AcDbText
  0
TEXT
  5
94
330
1E
100
AcDbEntity
  8
NOTE
  6
CONTINUOUS
 62
     4
100
AcDbText
 10
1077.459598026491
 20
-340.6585347506588
 30
0.0
 40
64.0
  1
RG %%c15.88
 41
0.9
100
AcDbText
  0
TEXT
  5
95
330
1E
100
AcDbEntity
  8
ETC
  6
CONTINUOUS
 62
    61
100
AcDbText
 10
311.5641032336425
 20
1252.054167374878
 30
0.0
 40
64.0
  1
PLFY-P63VLMD-E_5
 41
0.9
100
AcDbText
  0
LINE
  5
96
330
1E
100
AcDbEntity
  8
SERVICESPACE
  6
DASHDOT
 62
     2
100
AcDbLine
 10
-605.0
 20
0.0
 30
0.0
 11
-665.0
 21
0.0
 31
0.0
  0
LINE
  5
97
330
1E
100
AcDbEntity
  8
SERVICESPACE
  6
DASHDOT
 62
     2
100
AcDbLine
 10
-605.0
 20
20.0
 30
0.0
 11
-665.0
 21
20.0
 31
0.0
  0
LINE
  5
98
330
1E
100
AcDbEntity
  8
SERVICESPACE
  6
DASHDOT
 62
     2
100
AcDbLine
 10
-605.0
 20
20.0
 30
0.0
 11
-605.0
 21
0.0
 31
0.0
  0
LINE
  5
99
330
1E
100
AcDbEntity
  8
SERVICESPACE
  6
DASHDOT
 62
     2
100
AcDbLine
 10
664.9999999999996
 20
0.0
 30
0.0
 11
604.9999999999997
 21
0.0
 31
0.0
  0
LINE
  5
9A
330
1E
100
AcDbEntity
  8
SERVICESPACE
  6
DASHDOT
 62
     2
100
AcDbLine
 10
604.9999999999997
 20
20.0
 30
0.0
 11
604.9999999999997
 21
0.0
 31
0.0
  0
LINE
  5
9B
330
1E
100
AcDbEntity
  8
SERVICESPACE
  6
DASHDOT
 62
     2
100
AcDbLine
 10
664.9999999999996
 20
20.0
 30
0.0
 11
604.9999999999997
 21
20.0
 31
0.0
  0
LINE
  5
9C
330
1E
100
AcDbEntity
  8
NOTE
  6
CONTINUOUS
 62
     4
100
AcDbLine
 10
-163.0000000000009
 20
304.0
 30
0.0
 11
-203.0000000000008
 21
304.0
 31
0.0
  0
LINE
  5
9D
330
1E
100
AcDbEntity
  8
NOTE
  6
CONTINUOUS
 62
     4
100
AcDbLine
 10
-183.0000000000008
 20
284.0
 30
0.0
 11
-183.0000000000008
 21
324.0
 31
0.0
  0
LINE
  5
9E
330
1E
100
AcDbEntity
  8
NOTE
  6
CONTINUOUS
 62
     4
100
AcDbLine
 10
54.49999999999909
 20
304.0
 30
0.0
 11
14.49999999999909
 21
304.0
 31
0.0
  0
LINE
  5
9F
330
1E
100
AcDbEntity
  8
NOTE
  6
CONTINUOUS
 62
     4
100
AcDbLine
 10
34.49999999999909
 20
284.0
 30
0.0
 11
34.49999999999909
 21
324.0
 31
0.0
  0
LINE
  5
A0
330
1E
100
AcDbEntity
  8
NOTE
  6
CONTINUOUS
 62
     4
100
AcDbLine
 10
251.9999999999991
 20
284.0
 30
0.0
 11
251.9999999999991
 21
324.0
 31
0.0
  0
LINE
  5
A1
330
1E
100
AcDbEntity
  8
NOTE
  6
CONTINUOUS
 62
     4
100
AcDbLine
 10
271.9999999999989
 20
304.0
 30
0.0
 11
231.999999999999
 21
304.0
 31
0.0
  0
LINE
  5
A2
330
1E
100
AcDbEntity
  8
NOTE
  6
CONTINUOUS
 62
     4
100
AcDbLine
 10
-163.0000000000009
 20
145.0
 30
0.0
 11
-203.0000000000008
 21
145.0
 31
0.0
  0
LINE
  5
A3
330
1E
100
AcDbEntity
  8
NOTE
  6
CONTINUOUS
 62
     4
100
AcDbLine
 10
-183.0000000000008
 20
125.0
 30
0.0
 11
-183.0000000000008
 21
165.0
 31
0.0
  0
LINE
  5
A4
330
1E
100
AcDbEntity
  8
NOTE
  6
CONTINUOUS
 62
     4
100
AcDbLine
 10
54.49999999999909
 20
145.0
 30
0.0
 11
14.49999999999909
 21
145.0
 31
0.0
  0
LINE
  5
A5
330
1E
100
AcDbEntity
  8
NOTE
  6
CONTINUOUS
 62
     4
100
AcDbLine
 10
34.49999999999909
 20
125.0
 30
0.0
 11
34.49999999999909
 21
165.0
 31
0.0
  0
LINE
  5
A6
330
1E
100
AcDbEntity
  8
NOTE
  6
CONTINUOUS
 62
     4
100
AcDbLine
 10
251.9999999999991
 20
125.0
 30
0.0
 11
251.9999999999991
 21
165.0
 31
0.0
  0
LINE
  5
A7
330
1E
100
AcDbEntity
  8
NOTE
  6
CONTINUOUS
 62
     4
100
AcDbLine
 10
271.9999999999989
 20
145.0
 30
0.0
 11
231.999999999999
 21
145.0
 31
0.0
  0
LINE
  5
A8
330
1E
100
AcDbEntity
  8
NOTE
  6
CONTINUOUS
 62
     4
100
AcDbLine
 10
251.999999999998
 20
303.9999999999985
 30
0.0
 11
681.4917744945788
 21
984.2995962983945
 31
0.0
  0
LWPOLYLINE
  5
A9
330
1E
100
AcDbEntity
  8
NOTE
  6
CONTINUOUS
 62
     4
100
AcDbPolyline
 90
        3
 70
     0
 43
0.0
 10
281.308996192577
 20
331.2209987260362
 10
251.999999999998
 20
303.9999999999985
 10
263.7718350300455
 20
342.22857387501
  0
LINE
  5
AE
330
1E
100
AcDbEntity
  8
NOTE
  6
CONTINUOUS
 62
     4
100
AcDbLine
 10
472.9999999999985
 20
257.9999999999994
 30
0.0
 11
472.9999999999985
 21
297.9999999999995
 31
0.0
  0
LINE
  5
AF
330
1E
100
AcDbEntity
  8
NOTE
  6
CONTINUOUS
 62
     4
100
AcDbLine
 10
492.9999999999985
 20
277.9999999999994
 30
0.0
 11
452.9999999999985
 21
277.9999999999994
 31
0.0
  0
LINE
  5
B0
330
1E
100
AcDbEntity
  8
DETAIL
  6
CONTINUOUS
 62
     5
100
AcDbLine
 10
251.9999999999985
 20
285.9999999999994
 30
0.0
 11
-183.0000000000017
 21
286.0
 31
0.0
  0
LINE
  5
B1
330
1E
100
AcDbEntity
  8
DETAIL
  6
CONTINUOUS
 62
     5
100
AcDbLine
 10
251.9999999999985
 20
175.9999999999994
 30
0.0
 11
-183.0000000000017
 21
175.9999999999994
 31
0.0
  0
LINE
  5
B2
330
1E
100
AcDbEntity
  8
DETAIL
  6
CONTINUOUS
 62
     5
100
AcDbLine
 10
251.9999999999985
 20
285.9999999999994
 30
0.0
 11
251.9999999999985
 21
175.9999999999994
 31
0.0
  0
LINE
  5
B3
330
1E
100
AcDbEntity
  8
DETAIL
  6
CONTINUOUS
 62
     5
100
AcDbLine
 10
-183.0000000000013
 20
285.9999999999994
 30
0.0
 11
-183.0000000000013
 21
175.9999999999994
 31
0.0
  0
LINE
  5
B4
330
1E
100
AcDbEntity
  8
DETAIL
  6
CONTINUOUS
 62
     5
100
AcDbLine
 10
522.999999999998
 20
145.6999999999998
 30
0.0
 11
472.999999999998
 21
145.6999999999998
 31
0.0
  0
LINE
  5
B5
330
1E
100
AcDbEntity
  8
DETAIL
  6
CONTINUOUS
 62
     5
100
AcDbLine
 10
-473.0
 20
145.6999999999998
 30
0.0
 11
-523.0
 21
145.6999999999998
 31
0.0
  0
LINE
  5
B6
330
1E
100
AcDbEntity
  8
SIZE
  6
CONTINUOUS
 62
    30
100
AcDbLine
 10
472.999999999998
 20
358.0
 30
0.0
 11
472.999999999998
 21
637.3869999999996
 31
0.0
  0
LINE
  5
B7
330
1E
100
AcDbEntity
  8
SIZE
  6
CONTINUOUS
 62
    30
100
AcDbLine
 10
251.9999999999991
 20
344.0
 30
0.0
 11
251.9999999999991
 21
637.3869999999996
 31
0.0
  0
LINE
  5
B8
330
1E
100
AcDbEntity
  8
SIZE
  6
CONTINUOUS
 62
    30
100
AcDbLine
 10
462.9999999999982
 20
607.3869999999995
 30
0.0
 11
261.9999999999989
 21
607.3869999999995
 31
0.0
  0
CIRCLE
  5
B9
330
1E
100
AcDbEntity
  8
SIZE
  6
CONTINUOUS
 62
    30
100
AcDbCircle
 10
472.999999999998
 20
607.3869999999995
 30
0.0
 40
5.0
  0
LINE
  5
BA
330
1E
100
AcDbEntity
  8
SIZE
  6
CONTINUOUS
 62
    30
100
AcDbLine
 10
467.9999999999981
 20
607.3869999999995
 30
0.0
 11
462.999999999998
 21
607.3869999999995
 31
0.0
  0
CIRCLE
  5
BB
330
1E
100
AcDbEntity
  8
SIZE
  6
CONTINUOUS
 62
    30
100
AcDbCircle
 10
251.9999999999991
 20
607.3869999999995
 30
0.0
 40
5.0
  0
LINE
  5
BC
330
1E
100
AcDbEntity
  8
SIZE
  6
CONTINUOUS
 62
    30
100
AcDbLine
 10
256.999999999999
 20
607.3869999999995
 30
0.0
 11
261.999999999999
 21
607.3869999999995
 31
0.0
  0
TEXT
  5
BD
330
1E
100
AcDbEntity
  8
SIZE
  6
CONTINUOUS
 62
    30
100
AcDbText
 10
295.3218968372334
 20
627.3869999999996
 30
0.0
 40
64.0
  1
221
 41
0.9
 72
     1
 11
357.0361825515191
 21
627.3869999999996
 31
0.0
100
AcDbText
  0
POINT
  5
BE
330
1E
100
AcDbEntity
  8
DEFPOINTS
  6
CONTINUOUS
 62
     7
100
AcDbPoint
 10
472.999999999998
 20
338.0
 30
0.0
  0
POINT
  5
BF
330
1E
100
AcDbEntity
  8
DEFPOINTS
  6
CONTINUOUS
 62
     7
100
AcDbPoint
 10
251.9999999999991
 20
324.0
 30
0.0
  0
POINT
  5
C0
330
1E
100
AcDbEntity
  8
DEFPOINTS
  6
CONTINUOUS
 62
     7
100
AcDbPoint
 10
251.9999999999991
 20
607.3869999999995
 30
0.0
  0
LINE
  5
C1
330
1E
100
AcDbEntity
  8
SIZE
  6
CONTINUOUS
 62
    30
100
AcDbLine
 10
34.49999999999909
 20
344.0
 30
0.0
 11
34.49999999999909
 21
509.7928008183465
 31
0.0
  0
LINE
  5
C2
330
1E
100
AcDbEntity
  8
SIZE
  6
CONTINUOUS
 62
    30
100
AcDbLine
 10
251.9999999999991
 20
344.0
 30
0.0
 11
251.9999999999991
 21
509.7928008183465
 31
0.0
  0
LINE
  5
C3
330
1E
100
AcDbEntity
  8
SIZE
  6
CONTINUOUS
 62
    30
100
AcDbLine
 10
24.4999999999991
 20
479.7928008183466
 30
0.0
 11
14.49999999999909
 21
479.7928008183466
 31
0.0
  0
LINE
  5
C4
330
1E
100
AcDbEntity
  8
SIZE
  6
CONTINUOUS
 62
    30
100
AcDbLine
 10
261.9999999999989
 20
479.7928008183466
 30
0.0
 11
271.9999999999989
 21
479.7928008183466
 31
0.0
  0
LINE
  5
C5
330
1E
100
AcDbEntity
  8
SIZE
  6
CONTINUOUS
 62
    30
100
AcDbLine
 10
34.49999999999909
 20
479.7928008183466
 30
0.0
 11
251.9999999999991
 21
479.7928008183466
 31
0.0
  0
CIRCLE
  5
C6
330
1E
100
AcDbEntity
  8
SIZE
  6
CONTINUOUS
 62
    30
100
AcDbCircle
 10
34.49999999999909
 20
479.7928008183466
 30
0.0
 40
5.0
  0
LINE
  5
C7
330
1E
100
AcDbEntity
  8
SIZE
  6
CONTINUOUS
 62
    30
100
AcDbLine
 10
29.49999999999909
 20
479.7928008183466
 30
0.0
 11
24.49999999999909
 21
479.7928008183466
 31
0.0
  0
CIRCLE
  5
C8
330
1E
100
AcDbEntity
  8
SIZE
  6
CONTINUOUS
 62
    30
100
AcDbCircle
 10
251.9999999999991
 20
479.7928008183466
 30
0.0
 40
5.0
  0
LINE
  5
C9
330
1E
100
AcDbEntity
  8
SIZE
  6
CONTINUOUS
 62
    30
100
AcDbLine
 10
256.999999999999
 20
479.7928008183466
 30
0.0
 11
261.999999999999
 21
479.7928008183466
 31
0.0
  0
TEXT
  5
CA
330
1E
100
AcDbEntity
  8
SIZE
  6
CONTINUOUS
 62
    30
100
AcDbText
 10
33.53571428571339
 20
499.7928008183465
 30
0.0
 40
64.0
  1
217.5
 41
0.9
 72
     1
 11
143.2499999999991
 21
499.7928008183465
 31
0.0
100
AcDbText
  0
POINT
  5
CB
330
1E
100
AcDbEntity
  8
DEFPOINTS
  6
CONTINUOUS
 62
     7
100
AcDbPoint
 10
34.49999999999909
 20
324.0
 30
0.0
  0
POINT
  5
CC
330
1E
100
AcDbEntity
  8
DEFPOINTS
  6
CONTINUOUS
 62
     7
100
AcDbPoint
 10
251.9999999999991
 20
324.0
 30
0.0
  0
POINT
  5
CD
330
1E
100
AcDbEntity
  8
DEFPOINTS
  6
CONTINUOUS
 62
     7
100
AcDbPoint
 10
251.9999999999991
 20
479.7928008183466
 30
0.0
  0
LINE
  5
CE
330
1E
100
AcDbEntity
  8
SIZE
  6
CONTINUOUS
 62
    30
100
AcDbLine
 10
-605.0
 20
-20.0
 30
0.0
 11
-605.0
 21
-208.7615646318786
 31
0.0
  0
LINE
  5
CF
330
1E
100
AcDbEntity
  8
SIZE
  6
CONTINUOUS
 62
    30
100
AcDbLine
 10
-625.0
 20
-21.0
 30
0.0
 11
-625.0
 21
-208.7615646318786
 31
0.0
  0
LINE
  5
D0
330
1E
100
AcDbEntity
  8
SIZE
  6
CONTINUOUS
 62
    30
100
AcDbLine
 10
-595.0
 20
-178.7615646318785
 30
0.0
 11
-585.0
 21
-178.7615646318785
 31
0.0
  0
LINE
  5
D1
330
1E
100
AcDbEntity
  8
SIZE
  6
CONTINUOUS
 62
    30
100
AcDbLine
 10
-635.0
 20
-178.7615646318785
 30
0.0
 11
-778.2571428571428
 21
-178.7615646318785
 31
0.0
  0
LINE
  5
D2
330
1E
100
AcDbEntity
  8
SIZE
  6
CONTINUOUS
 62
    30
100
AcDbLine
 10
-605.0
 20
-178.7615646318785
 30
0.0
 11
-625.0
 21
-178.7615646318785
 31
0.0
  0
CIRCLE
  5
D3
330
1E
100
AcDbEntity
  8
SIZE
  6
CONTINUOUS
 62
    30
100
AcDbCircle
 10
-605.0
 20
-178.7615646318785
 30
0.0
 40
5.0
  0
LINE
  5
D4
330
1E
100
AcDbEntity
  8
SIZE
  6
CONTINUOUS
 62
    30
100
AcDbLine
 10
-600.0
 20
-178.7615646318785
 30
0.0
 11
-595.0
 21
-178.7615646318785
 31
0.0
  0
CIRCLE
  5
D5
330
1E
100
AcDbEntity
  8
SIZE
  6
CONTINUOUS
 62
    30
100
AcDbCircle
 10
-625.0
 20
-178.7615646318785
 30
0.0
 40
5.0
  0
LINE
  5
D6
330
1E
100
AcDbEntity
  8
SIZE
  6
CONTINUOUS
 62
    30
100
AcDbLine
 10
-630.0
 20
-178.7615646318785
 30
0.0
 11
-635.0
 21
-178.7615646318785
 31
0.0
  0
TEXT
  5
D7
330
1E
100
AcDbEntity
  8
SIZE
  6
CONTINUOUS
 62
    30
100
AcDbText
 10
-758.2571428571426
 20
-158.7615646318786
 30
0.0
 40
64.0
  1
20
 41
0.9
 72
     1
 11
-711.6285714285712
 21
-158.7615646318786
 31
0.0
100
AcDbText
  0
POINT
  5
D8
330
1E
100
AcDbEntity
  8
DEFPOINTS
  6
CONTINUOUS
 62
     7
100
AcDbPoint
 10
-605.0
 20
0.0
 30
0.0
  0
POINT
  5
D9
330
1E
100
AcDbEntity
  8
DEFPOINTS
  6
CONTINUOUS
 62
     7
100
AcDbPoint
 10
-625.0
 20
-1.0
 30
0.0
  0
POINT
  5
DA
330
1E
100
AcDbEntity
  8
DEFPOINTS
  6
CONTINUOUS
 62
     7
100
AcDbPoint
 10
-625.0
 20
-178.7615646318785
 30
0.0
  0
LINE
  5
DB
330
1E
100
AcDbEntity
  8
SIZE
  6
CONTINUOUS
 62
    30
100
AcDbLine
 10
604.9999999999997
 20
-20.0
 30
0.0
 11
604.9999999999997
 21
-208.7615646318786
 31
0.0
  0
LINE
  5
DC
330
1E
100
AcDbEntity
  8
SIZE
  6
CONTINUOUS
 62
    30
100
AcDbLine
 10
624.9999999999996
 20
-20.0
 30
0.0
 11
624.9999999999996
 21
-208.7615646318786
 31
0.0
  0
LINE
  5
DD
330
1E
100
AcDbEntity
  8
SIZE
  6
CONTINUOUS
 62
    30
100
AcDbLine
 10
594.9999999999996
 20
-178.7615646318785
 30
0.0
 11
584.9999999999996
 21
-178.7615646318785
 31
0.0
  0
LINE
  5
DE
330
1E
100
AcDbEntity
  8
SIZE
  6
CONTINUOUS
 62
    30
100
AcDbLine
 10
634.9999999999996
 20
-178.7615646318785
 30
0.0
 11
778.2571428571423
 21
-178.7615646318785
 31
0.0
  0
LINE
  5
DF
330
1E
100
AcDbEntity
  8
SIZE
  6
CONTINUOUS
 62
    30
100
AcDbLine
 10
604.9999999999997
 20
-178.7615646318785
 30
0.0
 11
624.9999999999996
 21
-178.7615646318785
 31
0.0
  0
CIRCLE
  5
E0
330
1E
100
AcDbEntity
  8
SIZE
  6
CONTINUOUS
 62
    30
100
AcDbCircle
 10
604.9999999999997
 20
-178.7615646318785
 30
0.0
 40
5.0
  0
LINE
  5
E1
330
1E
100
AcDbEntity
  8
SIZE
  6
CONTINUOUS
 62
    30
100
AcDbLine
 10
599.9999999999996
 20
-178.7615646318785
 30
0.0
 11
594.9999999999996
 21
-178.7615646318785
 31
0.0
  0
CIRCLE
  5
E2
330
1E
100
AcDbEntity
  8
SIZE
  6
CONTINUOUS
 62
    30
100
AcDbCircle
 10
624.9999999999996
 20
-178.7615646318785
 30
0.0
 40
5.0
  0
LINE
  5
E3
330
1E
100
AcDbEntity
  8
SIZE
  6
CONTINUOUS
 62
    30
100
AcDbLine
 10
629.9999999999997
 20
-178.7615646318785
 30
0.0
 11
634.9999999999996
 21
-178.7615646318785
 31
0.0
  0
TEXT
  5
E4
330
1E
100
AcDbEntity
  8
SIZE
  6
CONTINUOUS
 62
    30
100
AcDbText
 10
664.9999999999994
 20
-158.7615646318786
 30
0.0
 40
64.0
  1
20
 41
0.9
 72
     1
 11
711.6285714285708
 21
-158.7615646318786
 31
0.0
100
AcDbText
  0
POINT
  5
E5
330
1E
100
AcDbEntity
  8
DEFPOINTS
  6
CONTINUOUS
 62
     7
100
AcDbPoint
 10
604.9999999999997
 20
0.0
 30
0.0
  0
POINT
  5
E6
330
1E
100
AcDbEntity
  8
DEFPOINTS
  6
CONTINUOUS
 62
     7
100
AcDbPoint
 10
624.9999999999996
 20
0.0
 30
0.0
  0
POINT
  5
E7
330
1E
100
AcDbEntity
  8
DEFPOINTS
  6
CONTINUOUS
 62
     7
100
AcDbPoint
 10
624.9999999999996
 20
-178.7615646318785
 30
0.0
  0
LINE
  5
E8
330
1E
100
AcDbEntity
  8
SIZE
  6
CONTINUOUS
 62
    30
100
AcDbLine
 10
-497.0
 20
108.0
 30
0.0
 11
-497.0
 21
-626.4517531121867
 31
0.0
  0
LINE
  5
E9
330
1E
100
AcDbEntity
  8
SIZE
  6
CONTINUOUS
 62
    30
100
AcDbLine
 10
-605.0
 20
-20.0
 30
0.0
 11
-605.0
 21
-626.4517531121867
 31
0.0
  0
LINE
  5
EA
330
1E
100
AcDbEntity
  8
SIZE
  6
CONTINUOUS
 62
    30
100
AcDbLine
 10
-507.0
 20
-596.4517531121868
 30
0.0
 11
-595.0
 21
-596.4517531121868
 31
0.0
  0
LINE
  5
EB
330
1E
100
AcDbEntity
  8
SIZE
  6
CONTINUOUS
 62
    30
100
AcDbLine
 10
-605.0
 20
-596.4517531121868
 30
0.0
 11
-792.1428571428571
 21
-596.4517531121868
 31
0.0
  0
CIRCLE
  5
EC
330
1E
100
AcDbEntity
  8
SIZE
  6
CONTINUOUS
 62
    30
100
AcDbCircle
 10
-497.0
 20
-596.4517531121868
 30
0.0
 40
5.0
  0
LINE
  5
ED
330
1E
100
AcDbEntity
  8
SIZE
  6
CONTINUOUS
 62
    30
100
AcDbLine
 10
-502.0
 20
-596.4517531121868
 30
0.0
 11
-507.0
 21
-596.4517531121868
 31
0.0
  0
CIRCLE
  5
EE
330
1E
100
AcDbEntity
  8
SIZE
  6
CONTINUOUS
 62
    30
100
AcDbCircle
 10
-605.0
 20
-596.4517531121868
 30
0.0
 40
5.0
  0
LINE
  5
EF
330
1E
100
AcDbEntity
  8
SIZE
  6
CONTINUOUS
 62
    30
100
AcDbLine
 10
-600.0
 20
-596.4517531121868
 30
0.0
 11
-595.0
 21
-596.4517531121868
 31
0.0
  0
TEXT
  5
F0
330
1E
100
AcDbEntity
  8
SIZE
  6
CONTINUOUS
 62
    30
100
AcDbText
 10
-772.1428571428571
 20
-576.4517531121868
 30
0.0
 40
64.0
  1
108
 41
0.9
 72
     1
 11
-703.5714285714285
 21
-576.4517531121868
 31
0.0
100
AcDbText
  0
POINT
  5
F1
330
1E
100
AcDbEntity
  8
DEFPOINTS
  6
CONTINUOUS
 62
     7
100
AcDbPoint
 10
-497.0
 20
128.0
 30
0.0
  0
POINT
  5
F2
330
1E
100
AcDbEntity
  8
DEFPOINTS
  6
CONTINUOUS
 62
     7
100
AcDbPoint
 10
-605.0
 20
0.0
 30
0.0
  0
POINT
  5
F3
330
1E
100
AcDbEntity
  8
DEFPOINTS
  6
CONTINUOUS
 62
     7
100
AcDbPoint
 10
-605.0
 20
-596.4517531121868
 30
0.0
  0
LINE
  5
F4
330
1E
100
AcDbEntity
  8
SIZE
  6
CONTINUOUS
 62
    30
100
AcDbLine
 10
496.9999999999981
 20
108.0
 30
0.0
 11
496.9999999999981
 21
-626.4517531121867
 31
0.0
  0
LINE
  5
F5
330
1E
100
AcDbEntity
  8
SIZE
  6
CONTINUOUS
 62
    30
100
AcDbLine
 10
604.9999999999997
 20
-20.0
 30
0.0
 11
604.9999999999997
 21
-626.4517531121867
 31
0.0
  0
LINE
  5
F6
330
1E
100
AcDbEntity
  8
SIZE
  6
CONTINUOUS
 62
    30
100
AcDbLine
 10
506.999999999998
 20
-596.4517531121868
 30
0.0
 11
594.9999999999996
 21
-596.4517531121868
 31
0.0
  0
LINE
  5
F7
330
1E
100
AcDbEntity
  8
SIZE
  6
CONTINUOUS
 62
    30
100
AcDbLine
 10
604.9999999999997
 20
-596.4517531121868
 30
0.0
 11
792.1428571428565
 21
-596.4517531121868
 31
0.0
  0
CIRCLE
  5
F8
330
1E
100
AcDbEntity
  8
SIZE
  6
CONTINUOUS
 62
    30
100
AcDbCircle
 10
496.9999999999981
 20
-596.4517531121868
 30
0.0
 40
5.0
  0
LINE
  5
F9
330
1E
100
AcDbEntity
  8
SIZE
  6
CONTINUOUS
 62
    30
100
AcDbLine
 10
501.999999999998
 20
-596.4517531121868
 30
0.0
 11
506.999999999998
 21
-596.4517531121868
 31
0.0
  0
CIRCLE
  5
FA
330
1E
100
AcDbEntity
  8
SIZE
  6
CONTINUOUS
 62
    30
100
AcDbCircle
 10
604.9999999999997
 20
-596.4517531121868
 30
0.0
 40
5.0
  0
LINE
  5
FB
330
1E
100
AcDbEntity
  8
SIZE
  6
CONTINUOUS
 62
    30
100
AcDbLine
 10
599.9999999999996
 20
-596.4517531121868
 30
0.0
 11
594.9999999999996
 21
-596.4517531121868
 31
0.0
  0
TEXT
  5
FC
330
1E
100
AcDbEntity
  8
SIZE
  6
CONTINUOUS
 62
    30
100
AcDbText
 10
634.9999999999995
 20
-576.4517531121868
 30
0.0
 40
64.0
  1
108
 41
0.9
 72
     1
 11
703.5714285714281
 21
-576.4517531121868
 31
0.0
100
AcDbText
  0
POINT
  5
FD
330
1E
100
AcDbEntity
  8
DEFPOINTS
  6
CONTINUOUS
 62
     7
100
AcDbPoint
 10
496.9999999999981
 20
128.0
 30
0.0
  0
POINT
  5
FE
330
1E
100
AcDbEntity
  8
DEFPOINTS
  6
CONTINUOUS
 62
     7
100
AcDbPoint
 10
604.9999999999997
 20
0.0
 30
0.0
  0
POINT
  5
FF
330
1E
100
AcDbEntity
  8
DEFPOINTS
  6
CONTINUOUS
 62
     7
100
AcDbPoint
 10
604.9999999999997
 20
-596.4517531121868
 30
0.0
  0
TEXT
  5
100
330
1E
100
AcDbEntity
  8
NOTE
  6
CONTINUOUS
 62
     4
100
AcDbText
 10
-339.9471710542789
 20
-280.6877366781449
 30
0.0
 40
64.0
  1
(Ceiling opening)
 41
0.9
100
AcDbText
  0
TEXT
  5
101
330
1E
100
AcDbEntity
  8
NOTE
  6
CONTINUOUS
 62
     4
100
AcDbText
 10
-385.8697897263176
 20
-715.500904883746
 30
0.0
 40
64.0
  1
(Lifting bolt pitch)
 41
0.9
100
AcDbText
  0
LINE
  5
102
330
1E
100
AcDbEntity
  8
SIZE
  6
CONTINUOUS
 62
    30
100
AcDbLine
 10
-613.0
 20
45.0
 30
0.0
 11
-949.3874032420407
 21
45.00000000000009
 31
0.0
  0
LINE
  5
103
330
1E
100
AcDbEntity
  8
SIZE
  6
CONTINUOUS
 62
    30
100
AcDbLine
 10
-685.0
 20
0.0000000000000057
 30
0.0
 11
-949.3874032420407
 21
0.0000000000000806
 31
0.0
  0
LINE
  5
104
330
1E
100
AcDbEntity
  8
SIZE
  6
CONTINUOUS
 62
    30
100
AcDbLine
 10
-919.3874032420406
 20
55.00000000000009
 30
0.0
 11
-919.3874032420406
 21
65.0000000000001
 31
0.0
  0
LINE
  5
105
330
1E
100
AcDbEntity
  8
SIZE
  6
CONTINUOUS
 62
    30
100
AcDbLine
 10
-919.3874032420406
 20
-9.999999999999927
 30
0.0
 11
-919.3874032420406
 21
-153.257142857143
 31
0.0
  0
LINE
  5
106
330
1E
100
AcDbEntity
  8
SIZE
  6
CONTINUOUS
 62
    30
100
AcDbLine
 10
-919.3874032420406
 20
45.00000000000009
 30
0.0
 11
-919.3874032420406
 21
0.0000000000000721
 31
0.0
  0
CIRCLE
  5
107
330
1E
100
AcDbEntity
  8
SIZE
  6
CONTINUOUS
 62
    30
100
AcDbCircle
 10
-919.3874032420406
 20
45.00000000000009
 30
0.0
 40
5.0
  0
LINE
  5
108
330
1E
100
AcDbEntity
  8
SIZE
  6
CONTINUOUS
 62
    30
100
AcDbLine
 10
-919.3874032420406
 20
50.00000000000009
 30
0.0
 11
-919.3874032420406
 21
55.00000000000009
 31
0.0
  0
CIRCLE
  5
109
330
1E
100
AcDbEntity
  8
SIZE
  6
CONTINUOUS
 62
    30
100
AcDbCircle
 10
-919.3874032420406
 20
0.0000000000000721
 30
0.0
 40
5.0
  0
LINE
  5
10A
330
1E
100
AcDbEntity
  8
SIZE
  6
CONTINUOUS
 62
    30
100
AcDbLine
 10
-919.3874032420406
 20
-4.999999999999928
 30
0.0
 11
-919.3874032420406
 21
-9.999999999999927
 31
0.0
  0
TEXT
  5
10B
330
1E
100
AcDbEntity
  8
SIZE
  6
CONTINUOUS
 62
    30
100
AcDbText
 10
-939.3874032420407
 20
-133.2571428571432
 30
0.0
 40
64.0
  1
45
 50
90.0
 41
0.9
 72
     1
 11
-939.3874032420407
 21
-86.62857142857182
 31
0.0
100
AcDbText
  0
POINT
  5
10C
330
1E
100
AcDbEntity
  8
DEFPOINTS
  6
CONTINUOUS
 62
     7
100
AcDbPoint
 10
-593.0
 20
45.0
 30
0.0
  0
POINT
  5
10D
330
1E
100
AcDbEntity
  8
DEFPOINTS
  6
CONTINUOUS
 62
     7
100
AcDbPoint
 10
-665.0
 20
0.0
 30
0.0
  0
POINT
  5
10E
330
1E
100
AcDbEntity
  8
DEFPOINTS
  6
CONTINUOUS
 62
     7
100
AcDbPoint
 10
-919.3874032420406
 20
0.0000000000000721
 30
0.0
  0
LINE
  5
10F
330
1E
100
AcDbEntity
  8
SIZE
  6
CONTINUOUS
 62
    30
100
AcDbLine
 10
492.9999999999981
 20
338.0
 30
0.0
 11
809.6873285929815
 21
337.9999999999999
 31
0.0
  0
LINE
  5
110
330
1E
100
AcDbEntity
  8
SIZE
  6
CONTINUOUS
 62
    30
100
AcDbLine
 10
512.9999999999987
 20
277.9999999999994
 30
0.0
 11
809.6873285929815
 21
277.9999999999993
 31
0.0
  0
LINE
  5
111
330
1E
100
AcDbEntity
  8
SIZE
  6
CONTINUOUS
 62
    30
100
AcDbLine
 10
779.6873285929815
 20
327.9999999999998
 30
0.0
 11
779.6873285929815
 21
287.9999999999995
 31
0.0
  0
CIRCLE
  5
112
330
1E
100
AcDbEntity
  8
SIZE
  6
CONTINUOUS
 62
    30
100
AcDbCircle
 10
779.6873285929815
 20
337.9999999999999
 30
0.0
 40
5.0
  0
LINE
  5
113
330
1E
100
AcDbEntity
  8
SIZE
  6
CONTINUOUS
 62
    30
100
AcDbLine
 10
779.6873285929815
 20
332.9999999999998
 30
0.0
 11
779.6873285929815
 21
327.9999999999998
 31
0.0
  0
CIRCLE
  5
114
330
1E
100
AcDbEntity
  8
SIZE
  6
CONTINUOUS
 62
    30
100
AcDbCircle
 10
779.6873285929815
 20
277.9999999999993
 30
0.0
 40
5.0
  0
LINE
  5
115
330
1E
100
AcDbEntity
  8
SIZE
  6
CONTINUOUS
 62
    30
100
AcDbLine
 10
779.6873285929815
 20
282.9999999999993
 30
0.0
 11
779.6873285929815
 21
287.9999999999993
 31
0.0
  0
TEXT
  5
116
330
1E
100
AcDbEntity
  8
SIZE
  6
CONTINUOUS
 62
    30
100
AcDbText
 10
759.6873285929815
 20
261.3714285714282
 30
0.0
 40
64.0
  1
60
 50
90.0
 41
0.9
 72
     1
 11
759.6873285929815
 21
307.9999999999997
 31
0.0
100
AcDbText
  0
POINT
  5
117
330
1E
100
AcDbEntity
  8
DEFPOINTS
  6
CONTINUOUS
 62
     7
100
AcDbPoint
 10
472.999999999998
 20
338.0
 30
0.0
  0
POINT
  5
118
330
1E
100
AcDbEntity
  8
DEFPOINTS
  6
CONTINUOUS
 62
     7
100
AcDbPoint
 10
492.9999999999985
 20
277.9999999999994
 30
0.0
  0
POINT
  5
119
330
1E
100
AcDbEntity
  8
DEFPOINTS
  6
CONTINUOUS
 62
     7
100
AcDbPoint
 10
779.6873285929815
 20
277.9999999999993
 30
0.0
  0
LINE
  5
11A
330
1E
100
AcDbEntity
  8
SIZE
  6
CONTINUOUS
 62
    30
100
AcDbLine
 10
492.9999999999985
 20
338.0
 30
0.0
 11
930.343865977864
 21
337.9999999999999
 31
0.0
  0
LINE
  5
11B
330
1E
100
AcDbEntity
  8
SIZE
  6
CONTINUOUS
 62
    30
100
AcDbLine
 10
585.9999999999985
 20
215.9999999999998
 30
0.0
 11
930.343865977864
 21
215.9999999999997
 31
0.0
  0
LINE
  5
11C
330
1E
100
AcDbEntity
  8
SIZE
  6
CONTINUOUS
 62
    30
100
AcDbLine
 10
900.3438659778641
 20
327.9999999999997
 30
0.0
 11
900.3438659778639
 21
225.9999999999998
 31
0.0
  0
CIRCLE
  5
11D
330
1E
100
AcDbEntity
  8
SIZE
  6
CONTINUOUS
 62
    30
100
AcDbCircle
 10
900.3438659778641
 20
337.9999999999999
 30
0.0
 40
5.0
  0
LINE
  5
11E
330
1E
100
AcDbEntity
  8
SIZE
  6
CONTINUOUS
 62
    30
100
AcDbLine
 10
900.3438659778641
 20
332.9999999999998
 30
0.0
 11
900.3438659778641
 21
327.9999999999998
 31
0.0
  0
CIRCLE
  5
11F
330
1E
100
AcDbEntity
  8
SIZE
  6
CONTINUOUS
 62
    30
100
AcDbCircle
 10
900.3438659778639
 20
215.9999999999997
 30
0.0
 40
5.0
  0
LINE
  5
120
330
1E
100
AcDbEntity
  8
SIZE
  6
CONTINUOUS
 62
    30
100
AcDbLine
 10
900.3438659778639
 20
220.9999999999998
 30
0.0
 11
900.3438659778639
 21
225.9999999999998
 31
0.0
  0
TEXT
  5
121
330
1E
100
AcDbEntity
  8
SIZE
  6
CONTINUOUS
 62
    30
100
AcDbText
 10
880.343865977864
 20
208.4285714285714
 30
0.0
 40
64.0
  1
122
 50
90.0
 41
0.9
 72
     1
 11
880.343865977864
 21
277.0
 31
0.0
100
AcDbText
  0
POINT
  5
122
330
1E
100
AcDbEntity
  8
DEFPOINTS
  6
CONTINUOUS
 62
     7
100
AcDbPoint
 10
472.9999999999985
 20
338.0
 30
0.0
  0
POINT
  5
123
330
1E
100
AcDbEntity
  8
DEFPOINTS
  6
CONTINUOUS
 62
     7
100
AcDbPoint
 10
565.9999999999985
 20
216.0
 30
0.0
  0
POINT
  5
124
330
1E
100
AcDbEntity
  8
DEFPOINTS
  6
CONTINUOUS
 62
     7
100
AcDbPoint
 10
900.3438659778639
 20
215.9999999999997
 30
0.0
  0
LINE
  5
125
330
1E
100
AcDbEntity
  8
SIZE
  6
CONTINUOUS
 62
    30
100
AcDbLine
 10
492.9999999999985
 20
338.0
 30
0.0
 11
1038.625368020738
 21
337.9999999999997
 31
0.0
  0
LINE
  5
126
330
1E
100
AcDbEntity
  8
SIZE
  6
CONTINUOUS
 62
    30
100
AcDbLine
 10
626.9999999999985
 20
212.9999999999994
 30
0.0
 11
1038.625368020738
 21
212.9999999999994
 31
0.0
  0
LINE
  5
127
330
1E
100
AcDbEntity
  8
SIZE
  6
CONTINUOUS
 62
    30
100
AcDbLine
 10
1008.625368020739
 20
327.9999999999997
 30
0.0
 11
1008.625368020739
 21
222.9999999999994
 31
0.0
  0
CIRCLE
  5
128
330
1E
100
AcDbEntity
  8
SIZE
  6
CONTINUOUS
 62
    30
100
AcDbCircle
 10
1008.625368020739
 20
337.9999999999997
 30
0.0
 40
5.0
  0
LINE
  5
129
330
1E
100
AcDbEntity
  8
SIZE
  6
CONTINUOUS
 62
    30
100
AcDbLine
 10
1008.625368020739
 20
332.9999999999997
 30
0.0
 11
1008.625368020739
 21
327.9999999999997
 31
0.0
  0
CIRCLE
  5
12A
330
1E
100
AcDbEntity
  8
SIZE
  6
CONTINUOUS
 62
    30
100
AcDbCircle
 10
1008.625368020739
 20
212.9999999999994
 30
0.0
 40
5.0
  0
LINE
  5
12B
330
1E
100
AcDbEntity
  8
SIZE
  6
CONTINUOUS
 62
    30
100
AcDbLine
 10
1008.625368020739
 20
217.9999999999993
 30
0.0
 11
1008.625368020739
 21
222.9999999999994
 31
0.0
  0
TEXT
  5
12C
330
1E
100
AcDbEntity
  8
SIZE
  6
CONTINUOUS
 62
    30
100
AcDbText
 10
988.6253680207394
 20
206.9285714285711
 30
0.0
 40
64.0
  1
125
 50
90.0
 41
0.9
 72
     1
 11
988.6253680207394
 21
275.4999999999997
 31
0.0
100
AcDbText
  0
POINT
  5
12D
330
1E
100
AcDbEntity
  8
DEFPOINTS
  6
CONTINUOUS
 62
     7
100
AcDbPoint
 10
472.9999999999985
 20
338.0
 30
0.0
  0
POINT
  5
12E
330
1E
100
AcDbEntity
  8
DEFPOINTS
  6
CONTINUOUS
 62
     7
100
AcDbPoint
 10
606.9999999999985
 20
212.9999999999994
 30
0.0
  0
POINT
  5
12F
330
1E
100
AcDbEntity
  8
DEFPOINTS
  6
CONTINUOUS
 62
     7
100
AcDbPoint
 10
1008.625368020739
 20
212.9999999999994
 30
0.0
  0
LINE
  5
130
330
1E
100
AcDbEntity
  8
SIZE
  6
CONTINUOUS
 62
    30
100
AcDbLine
 10
492.9999999999985
 20
338.0
 30
0.0
 11
1172.172910418264
 21
337.9999999999997
 31
0.0
  0
LINE
  5
131
330
1E
100
AcDbEntity
  8
SIZE
  6
CONTINUOUS
 62
    30
100
AcDbLine
 10
542.9999999999985
 20
71.99999999999954
 30
0.0
 11
1172.172910418264
 21
71.99999999999936
 31
0.0
  0
LINE
  5
132
330
1E
100
AcDbEntity
  8
SIZE
  6
CONTINUOUS
 62
    30
100
AcDbLine
 10
1142.172910418265
 20
327.9999999999997
 30
0.0
 11
1142.172910418265
 21
81.99999999999937
 31
0.0
  0
CIRCLE
  5
133
330
1E
100
AcDbEntity
  8
SIZE
  6
CONTINUOUS
 62
    30
100
AcDbCircle
 10
1142.172910418265
 20
337.9999999999997
 30
0.0
 40
5.0
  0
LINE
  5
134
330
1E
100
AcDbEntity
  8
SIZE
  6
CONTINUOUS
 62
    30
100
AcDbLine
 10
1142.172910418265
 20
332.9999999999997
 30
0.0
 11
1142.172910418265
 21
327.9999999999997
 31
0.0
  0
CIRCLE
  5
135
330
1E
100
AcDbEntity
  8
SIZE
  6
CONTINUOUS
 62
    30
100
AcDbCircle
 10
1142.172910418265
 20
71.99999999999936
 30
0.0
 40
5.0
  0
LINE
  5
136
330
1E
100
AcDbEntity
  8
SIZE
  6
CONTINUOUS
 62
    30
100
AcDbLine
 10
1142.172910418265
 20
76.99999999999936
 30
0.0
 11
1142.172910418265
 21
81.99999999999937
 31
0.0
  0
TEXT
  5
137
330
1E
100
AcDbEntity
  8
SIZE
  6
CONTINUOUS
 62
    30
100
AcDbText
 10
1122.172910418264
 20
127.339591480973
 30
0.0
 40
64.0
  1
266
 50
90.0
 41
0.9
 72
     1
 11
1122.172910418264
 21
200.0253057666873
 31
0.0
100
AcDbText
  0
POINT
  5
138
330
1E
100
AcDbEntity
  8
DEFPOINTS
  6
CONTINUOUS
 62
     7
100
AcDbPoint
 10
472.9999999999985
 20
338.0
 30
0.0
  0
POINT
  5
139
330
1E
100
AcDbEntity
  8
DEFPOINTS
  6
CONTINUOUS
 62
     7
100
AcDbPoint
 10
522.9999999999985
 20
71.99999999999954
 30
0.0
  0
POINT
  5
13A
330
1E
100
AcDbEntity
  8
DEFPOINTS
  6
CONTINUOUS
 62
     7
100
AcDbPoint
 10
1142.172910418265
 20
71.99999999999936
 30
0.0
  0
LINE
  5
13B
330
1E
100
AcDbEntity
  8
SIZE
  6
CONTINUOUS
 62
    30
100
AcDbLine
 10
452.9999999999985
 20
337.9999999999995
 30
0.0
 11
374.5265561297911
 21
337.9999999999995
 31
0.0
  0
LINE
  5
13C
330
1E
100
AcDbEntity
  8
SIZE
  6
CONTINUOUS
 62
    30
100
AcDbLine
 10
291.999999999999
 20
304.0
 30
0.0
 11
434.5265561297911
 21
303.9999999999999
 31
0.0
  0
LINE
  5
13D
330
1E
100
AcDbEntity
  8
SIZE
  6
CONTINUOUS
 62
    30
100
AcDbLine
 10
404.526556129791
 20
293.9999999999999
 30
0.0
 11
404.526556129791
 21
283.9999999999998
 31
0.0
  0
LINE
  5
13E
330
1E
100
AcDbEntity
  8
SIZE
  6
CONTINUOUS
 62
    30
100
AcDbLine
 10
404.526556129791
 20
347.9999999999995
 30
0.0
 11
404.526556129791
 21
493.9999999999995
 31
0.0
  0
LINE
  5
13F
330
1E
100
AcDbEntity
  8
SIZE
  6
CONTINUOUS
 62
    30
100
AcDbLine
 10
404.526556129791
 20
303.9999999999999
 30
0.0
 11
404.526556129791
 21
337.9999999999995
 31
0.0
  0
CIRCLE
  5
140
330
1E
100
AcDbEntity
  8
SIZE
  6
CONTINUOUS
 62
    30
100
AcDbCircle
 10
404.526556129791
 20
303.9999999999999
 30
0.0
 40
5.0
  0
LINE
  5
141
330
1E
100
AcDbEntity
  8
SIZE
  6
CONTINUOUS
 62
    30
100
AcDbLine
 10
404.526556129791
 20
298.9999999999998
 30
0.0
 11
404.526556129791
 21
293.9999999999999
 31
0.0
  0
CIRCLE
  5
142
330
1E
100
AcDbEntity
  8
SIZE
  6
CONTINUOUS
 62
    30
100
AcDbCircle
 10
404.526556129791
 20
337.9999999999995
 30
0.0
 40
5.0
  0
LINE
  5
143
330
1E
100
AcDbEntity
  8
SIZE
  6
CONTINUOUS
 62
    30
100
AcDbLine
 10
404.526556129791
 20
342.9999999999994
 30
0.0
 11
404.526556129791
 21
347.9999999999995
 31
0.0
  0
TEXT
  5
144
330
1E
100
AcDbEntity
  8
SIZE
  6
CONTINUOUS
 62
    30
100
AcDbText
 10
384.526556129791
 20
377.9999999999996
 30
0.0
 40
64.0
  1
34
 50
90.0
 41
0.9
 72
     1
 11
384.526556129791
 21
425.9999999999996
 31
0.0
100
AcDbText
  0
POINT
  5
145
330
1E
100
AcDbEntity
  8
DEFPOINTS
  6
CONTINUOUS
 62
     7
100
AcDbPoint
 10
472.9999999999985
 20
337.9999999999995
 30
0.0
  0
POINT
  5
146
330
1E
100
AcDbEntity
  8
DEFPOINTS
  6
CONTINUOUS
 62
     7
100
AcDbPoint
 10
271.9999999999989
 20
304.0
 30
0.0
  0
POINT
  5
147
330
1E
100
AcDbEntity
  8
DEFPOINTS
  6
CONTINUOUS
 62
     7
100
AcDbPoint
 10
404.526556129791
 20
303.9999999999999
 30
0.0
  0
LINE
  5
148
330
1E
100
AcDbEntity
  8
SIZE
  6
CONTINUOUS
 62
    30
100
AcDbLine
 10
291.999999999999
 20
304.0
 30
0.0
 11
434.5265561297909
 21
303.9999999999999
 31
0.0
  0
LINE
  5
149
330
1E
100
AcDbEntity
  8
SIZE
  6
CONTINUOUS
 62
    30
100
AcDbLine
 10
291.999999999999
 20
145.0
 30
0.0
 11
434.5265561297909
 21
144.9999999999998
 31
0.0
  0
LINE
  5
14A
330
1E
100
AcDbEntity
  8
SIZE
  6
CONTINUOUS
 62
    30
100
AcDbLine
 10
404.526556129791
 20
313.9999999999998
 30
0.0
 11
404.526556129791
 21
323.9999999999998
 31
0.0
  0
LINE
  5
14B
330
1E
100
AcDbEntity
  8
SIZE
  6
CONTINUOUS
 62
    30
100
AcDbLine
 10
404.526556129791
 20
134.9999999999998
 30
0.0
 11
404.526556129791
 21
124.9999999999999
 31
0.0
  0
LINE
  5
14C
330
1E
100
AcDbEntity
  8
SIZE
  6
CONTINUOUS
 62
    30
100
AcDbLine
 10
404.526556129791
 20
303.9999999999999
 30
0.0
 11
404.526556129791
 21
144.9999999999998
 31
0.0
  0
CIRCLE
  5
14D
330
1E
100
AcDbEntity
  8
SIZE
  6
CONTINUOUS
 62
    30
100
AcDbCircle
 10
404.526556129791
 20
303.9999999999999
 30
0.0
 40
5.0
  0
LINE
  5
14E
330
1E
100
AcDbEntity
  8
SIZE
  6
CONTINUOUS
 62
    30
100
AcDbLine
 10
404.526556129791
 20
308.9999999999998
 30
0.0
 11
404.526556129791
 21
313.9999999999998
 31
0.0
  0
CIRCLE
  5
14F
330
1E
100
AcDbEntity
  8
SIZE
  6
CONTINUOUS
 62
    30
100
AcDbCircle
 10
404.526556129791
 20
144.9999999999998
 30
0.0
 40
5.0
  0
LINE
  5
150
330
1E
100
AcDbEntity
  8
SIZE
  6
CONTINUOUS
 62
    30
100
AcDbLine
 10
404.526556129791
 20
139.9999999999998
 30
0.0
 11
404.526556129791
 21
134.9999999999998
 31
0.0
  0
TEXT
  5
151
330
1E
100
AcDbEntity
  8
SIZE
  6
CONTINUOUS
 62
    30
100
AcDbText
 10
384.526556129791
 20
157.2999999999999
 30
0.0
 40
64.0
  1
159
 50
90.0
 41
0.9
 72
     1
 11
384.526556129791
 21
224.4999999999999
 31
0.0
100
AcDbText
  0
POINT
  5
152
330
1E
100
AcDbEntity
  8
DEFPOINTS
  6
CONTINUOUS
 62
     7
100
AcDbPoint
 10
271.9999999999989
 20
304.0
 30
0.0
  0
POINT
  5
153
330
1E
100
AcDbEntity
  8
DEFPOINTS
  6
CONTINUOUS
 62
     7
100
AcDbPoint
 10
271.9999999999989
 20
145.0
 30
0.0
  0
POINT
  5
154
330
1E
100
AcDbEntity
  8
DEFPOINTS
  6
CONTINUOUS
 62
     7
100
AcDbPoint
 10
404.526556129791
 20
144.9999999999998
 30
0.0
  0
TEXT
  5
155
330
1E
100
AcDbEntity
  8
NOTE
  6
CONTINUOUS
 62
     4
100
AcDbText
 10
725.1539661699762
 20
1004.734961046062
 30
0.0
 40
64.0
  1
6-%%c2.9
 41
0.9
100
AcDbText
  0
LINE
  5
156
330
1E
100
AcDbEntity
  8
NOTE
  6
CONTINUOUS
 62
     4
100
AcDbLine
 10
681.4917744945788
 20
984.2995962983945
 30
0.0
 11
1087.751969494577
 21
984.2995962983945
 31
0.0
  0
TEXT
  5
157
330
1E
100
AcDbEntity
  8
NOTE
  6
CONTINUOUS
 62
     4
100
AcDbText
 10
-1313.474654090198
 20
619.4407348637456
 30
0.0
 40
64.0
  1
AH 4-14X30
 41
0.9
100
AcDbText
  0
LINE
  5
158
330
1E
100
AcDbEntity
  8
NOTE
  6
CONTINUOUS
 62
     4
100
AcDbLine
 10
-1377.827487815826
 20
586.3744267360134
 30
0.0
 11
-711.5672928158264
 21
586.3744267360134
 31
0.0
  0
LINE
  5
159
330
1E
100
AcDbEntity
  8
SIZE
  6
CONTINUOUS
 62
    30
100
AcDbLine
 10
472.9999999999985
 20
357.9999999999994
 30
0.0
 11
472.9999999999985
 21
456.1000073814489
 31
0.0
  0
LINE
  5
15A
330
1E
100
AcDbEntity
  8
SIZE
  6
CONTINUOUS
 62
    30
100
AcDbLine
 10
539.9999999999985
 20
256.0
 30
0.0
 11
539.9999999999985
 21
456.1000073814489
 31
0.0
  0
LINE
  5
15B
330
1E
100
AcDbEntity
  8
SIZE
  6
CONTINUOUS
 62
    30
100
AcDbLine
 10
482.9999999999984
 20
426.1000073814488
 30
0.0
 11
529.9999999999985
 21
426.1000073814488
 31
0.0
  0
LINE
  5
15C
330
1E
100
AcDbEntity
  8
SIZE
  6
CONTINUOUS
 62
    30
100
AcDbLine
 10
539.9999999999985
 20
426.1000073814488
 30
0.0
 11
683.2571428571415
 21
426.1000073814488
 31
0.0
  0
CIRCLE
  5
15D
330
1E
100
AcDbEntity
  8
SIZE
  6
CONTINUOUS
 62
    30
100
AcDbCircle
 10
472.9999999999985
 20
426.1000073814488
 30
0.0
 40
5.0
  0
LINE
  5
15E
330
1E
100
AcDbEntity
  8
SIZE
  6
CONTINUOUS
 62
    30
100
AcDbLine
 10
477.9999999999985
 20
426.1000073814488
 30
0.0
 11
482.9999999999984
 21
426.1000073814488
 31
0.0
  0
CIRCLE
  5
15F
330
1E
100
AcDbEntity
  8
SIZE
  6
CONTINUOUS
 62
    30
100
AcDbCircle
 10
539.9999999999985
 20
426.1000073814488
 30
0.0
 40
5.0
  0
LINE
  5
160
330
1E
100
AcDbEntity
  8
SIZE
  6
CONTINUOUS
 62
    30
100
AcDbLine
 10
534.9999999999985
 20
426.1000073814488
 30
0.0
 11
529.9999999999985
 21
426.1000073814488
 31
0.0
  0
TEXT
  5
161
330
1E
100
AcDbEntity
  8
SIZE
  6
CONTINUOUS
 62
    30
100
AcDbText
 10
569.9999999999986
 20
446.1000073814489
 30
0.0
 40
64.0
  1
67
 41
0.9
 72
     1
 11
616.62857142857
 21
446.1000073814489
 31
0.0
100
AcDbText
  0
POINT
  5
162
330
1E
100
AcDbEntity
  8
DEFPOINTS
  6
CONTINUOUS
 62
     7
100
AcDbPoint
 10
472.9999999999985
 20
337.9999999999995
 30
0.0
  0
POINT
  5
163
330
1E
100
AcDbEntity
  8
DEFPOINTS
  6
CONTINUOUS
 62
     7
100
AcDbPoint
 10
539.9999999999985
 20
236.0
 30
0.0
  0
POINT
  5
164
330
1E
100
AcDbEntity
  8
DEFPOINTS
  6
CONTINUOUS
 62
     7
100
AcDbPoint
 10
539.9999999999985
 20
426.1000073814488
 30
0.0
  0
LINE
  5
165
330
1E
100
AcDbEntity
  8
SIZE
  6
CONTINUOUS
 62
    30
100
AcDbLine
 10
472.999999999998
 20
358.0
 30
0.0
 11
472.999999999998
 21
569.4071686758384
 31
0.0
  0
LINE
  5
166
330
1E
100
AcDbEntity
  8
SIZE
  6
CONTINUOUS
 62
    30
100
AcDbLine
 10
545.9999999999985
 20
256.0
 30
0.0
 11
545.9999999999985
 21
569.4071686758384
 31
0.0
  0
LINE
  5
167
330
1E
100
AcDbEntity
  8
SIZE
  6
CONTINUOUS
 62
    30
100
AcDbLine
 10
482.9999999999982
 20
539.4071686758384
 30
0.0
 11
535.9999999999985
 21
539.4071686758384
 31
0.0
  0
LINE
  5
168
330
1E
100
AcDbEntity
  8
SIZE
  6
CONTINUOUS
 62
    30
100
AcDbLine
 10
545.9999999999985
 20
539.4071686758384
 30
0.0
 11
689.2571428571415
 21
539.4071686758384
 31
0.0
  0
CIRCLE
  5
169
330
1E
100
AcDbEntity
  8
SIZE
  6
CONTINUOUS
 62
    30
100
AcDbCircle
 10
472.999999999998
 20
539.4071686758384
 30
0.0
 40
5.0
  0
LINE
  5
16A
330
1E
100
AcDbEntity
  8
SIZE
  6
CONTINUOUS
 62
    30
100
AcDbLine
 10
477.999999999998
 20
539.4071686758384
 30
0.0
 11
482.999999999998
 21
539.4071686758384
 31
0.0
  0
CIRCLE
  5
16B
330
1E
100
AcDbEntity
  8
SIZE
  6
CONTINUOUS
 62
    30
100
AcDbCircle
 10
545.9999999999985
 20
539.4071686758384
 30
0.0
 40
5.0
  0
LINE
  5
16C
330
1E
100
AcDbEntity
  8
SIZE
  6
CONTINUOUS
 62
    30
100
AcDbLine
 10
540.9999999999985
 20
539.4071686758384
 30
0.0
 11
535.9999999999985
 21
539.4071686758384
 31
0.0
  0
TEXT
  5
16D
330
1E
100
AcDbEntity
  8
SIZE
  6
CONTINUOUS
 62
    30
100
AcDbText
 10
575.9999999999986
 20
559.4071686758383
 30
0.0
 40
64.0
  1
73
 41
0.9
 72
     1
 11
622.62857142857
 21
559.4071686758383
 31
0.0
100
AcDbText
  0
POINT
  5
16E
330
1E
100
AcDbEntity
  8
DEFPOINTS
  6
CONTINUOUS
 62
     7
100
AcDbPoint
 10
472.999999999998
 20
338.0
 30
0.0
  0
POINT
  5
16F
330
1E
100
AcDbEntity
  8
DEFPOINTS
  6
CONTINUOUS
 62
     7
100
AcDbPoint
 10
545.9999999999985
 20
236.0
 30
0.0
  0
POINT
  5
170
330
1E
100
AcDbEntity
  8
DEFPOINTS
  6
CONTINUOUS
 62
     7
100
AcDbPoint
 10
545.9999999999985
 20
539.4071686758384
 30
0.0
  0
LINE
  5
171
330
1E
100
AcDbEntity
  8
SIZE
  6
CONTINUOUS
 62
    30
100
AcDbLine
 10
502.9999999999985
 20
31.99999999999954
 30
0.0
 11
502.9999999999985
 21
-137.1193382366523
 31
0.0
  0
LINE
  5
172
330
1E
100
AcDbEntity
  8
SIZE
  6
CONTINUOUS
 62
    30
100
AcDbLine
 10
472.9999999999985
 20
25.0
 30
0.0
 11
472.9999999999985
 21
-137.1193382366523
 31
0.0
  0
LINE
  5
173
330
1E
100
AcDbEntity
  8
SIZE
  6
CONTINUOUS
 62
    30
100
AcDbLine
 10
512.9999999999985
 20
-107.1193382366522
 30
0.0
 11
522.9999999999985
 21
-107.1193382366522
 31
0.0
  0
LINE
  5
174
330
1E
100
AcDbEntity
  8
SIZE
  6
CONTINUOUS
 62
    30
100
AcDbLine
 10
462.9999999999985
 20
-107.1193382366522
 30
0.0
 11
319.7428571428556
 21
-107.1193382366522
 31
0.0
  0
LINE
  5
175
330
1E
100
AcDbEntity
  8
SIZE
  6
CONTINUOUS
 62
    30
100
AcDbLine
 10
502.9999999999985
 20
-107.1193382366522
 30
0.0
 11
472.9999999999985
 21
-107.1193382366522
 31
0.0
  0
CIRCLE
  5
176
330
1E
100
AcDbEntity
  8
SIZE
  6
CONTINUOUS
 62
    30
100
AcDbCircle
 10
502.9999999999985
 20
-107.1193382366522
 30
0.0
 40
5.0
  0
LINE
  5
177
330
1E
100
AcDbEntity
  8
SIZE
  6
CONTINUOUS
 62
    30
100
AcDbLine
 10
507.9999999999984
 20
-107.1193382366522
 30
0.0
 11
512.9999999999985
 21
-107.1193382366522
 31
0.0
  0
CIRCLE
  5
178
330
1E
100
AcDbEntity
  8
SIZE
  6
CONTINUOUS
 62
    30
100
AcDbCircle
 10
472.9999999999985
 20
-107.1193382366522
 30
0.0
 40
5.0
  0
LINE
  5
179
330
1E
100
AcDbEntity
  8
SIZE
  6
CONTINUOUS
 62
    30
100
AcDbLine
 10
467.9999999999985
 20
-107.1193382366522
 30
0.0
 11
462.9999999999985
 21
-107.1193382366522
 31
0.0
  0
TEXT
  5
17A
330
1E
100
AcDbEntity
  8
SIZE
  6
CONTINUOUS
 62
    30
100
AcDbText
 10
339.7428571428557
 20
-87.1193382366523
 30
0.0
 40
64.0
  1
30
 41
0.9
 72
     1
 11
386.3714285714271
 21
-87.1193382366523
 31
0.0
100
AcDbText
  0
POINT
  5
17B
330
1E
100
AcDbEntity
  8
DEFPOINTS
  6
CONTINUOUS
 62
     7
100
AcDbPoint
 10
502.9999999999985
 20
51.99999999999954
 30
0.0
  0
POINT
  5
17C
330
1E
100
AcDbEntity
  8
DEFPOINTS
  6
CONTINUOUS
 62
     7
100
AcDbPoint
 10
472.9999999999985
 20
45.0
 30
0.0
  0
POINT
  5
17D
330
1E
100
AcDbEntity
  8
DEFPOINTS
  6
CONTINUOUS
 62
     7
100
AcDbPoint
 10
472.9999999999985
 20
-107.1193382366522
 30
0.0
  0
LINE
  5
17E
330
1E
100
AcDbEntity
  8
SIZE
  6
CONTINUOUS
 62
    30
100
AcDbLine
 10
-203.0000000000017
 20
286.0
 30
0.0
 11
-782.6630526236612
 21
286.0
 31
0.0
  0
LINE
  5
17F
330
1E
100
AcDbEntity
  8
SIZE
  6
CONTINUOUS
 62
    30
100
AcDbLine
 10
-203.0000000000013
 20
175.9999999999994
 30
0.0
 11
-782.6630526236612
 21
175.9999999999996
 31
0.0
  0
LINE
  5
180
330
1E
100
AcDbEntity
  8
SIZE
  6
CONTINUOUS
 62
    30
100
AcDbLine
 10
-752.6630526236612
 20
296.0
 30
0.0
 11
-752.6630526236612
 21
306.0
 31
0.0
  0
LINE
  5
181
330
1E
100
AcDbEntity
  8
SIZE
  6
CONTINUOUS
 62
    30
100
AcDbLine
 10
-752.6630526236612
 20
165.9999999999996
 30
0.0
 11
-752.6630526236612
 21
155.9999999999996
 31
0.0
  0
LINE
  5
182
330
1E
100
AcDbEntity
  8
SIZE
  6
CONTINUOUS
 62
    30
100
AcDbLine
 10
-752.6630526236612
 20
286.0
 30
0.0
 11
-752.6630526236612
 21
175.9999999999996
 31
0.0
  0
CIRCLE
  5
183
330
1E
100
AcDbEntity
  8
SIZE
  6
CONTINUOUS
 62
    30
100
AcDbCircle
 10
-752.6630526236612
 20
286.0
 30
0.0
 40
5.0
  0
LINE
  5
184
330
1E
100
AcDbEntity
  8
SIZE
  6
CONTINUOUS
 62
    30
100
AcDbLine
 10
-752.6630526236612
 20
291.0
 30
0.0
 11
-752.6630526236612
 21
296.0
 31
0.0
  0
CIRCLE
  5
185
330
1E
100
AcDbEntity
  8
SIZE
  6
CONTINUOUS
 62
    30
100
AcDbCircle
 10
-752.6630526236612
 20
175.9999999999996
 30
0.0
 40
5.0
  0
LINE
  5
186
330
1E
100
AcDbEntity
  8
SIZE
  6
CONTINUOUS
 62
    30
100
AcDbLine
 10
-752.6630526236612
 20
170.9999999999996
 30
0.0
 11
-752.6630526236612
 21
165.9999999999996
 31
0.0
  0
TEXT
  5
187
330
1E
100
AcDbEntity
  8
SIZE
  6
CONTINUOUS
 62
    30
100
AcDbText
 10
-772.6630526236612
 20
167.9142857142855
 30
0.0
 40
64.0
  1
110
 50
90.0
 41
0.9
 72
     1
 11
-772.6630526236612
 21
230.9999999999998
 31
0.0
100
AcDbText
  0
POINT
  5
188
330
1E
100
AcDbEntity
  8
DEFPOINTS
  6
CONTINUOUS
 62
     7
100
AcDbPoint
 10
-183.0000000000017
 20
286.0
 30
0.0
  0
POINT
  5
189
330
1E
100
AcDbEntity
  8
DEFPOINTS
  6
CONTINUOUS
 62
     7
100
AcDbPoint
 10
-183.0000000000013
 20
175.9999999999994
 30
0.0
  0
POINT
  5
18A
330
1E
100
AcDbEntity
  8
DEFPOINTS
  6
CONTINUOUS
 62
     7
100
AcDbPoint
 10
-752.6630526236612
 20
175.9999999999996
 30
0.0
  0
LINE
  5
18B
330
1E
100
AcDbEntity
  8
SIZE
  6
CONTINUOUS
 62
    30
100
AcDbLine
 10
-493.0000000000005
 20
337.9999999999995
 30
0.0
 11
-782.6630526236621
 21
337.9999999999995
 31
0.0
  0
LINE
  5
18C
330
1E
100
AcDbEntity
  8
SIZE
  6
CONTINUOUS
 62
    30
100
AcDbLine
 10
-203.0000000000013
 20
285.9999999999994
 30
0.0
 11
-782.6630526236621
 21
285.9999999999997
 31
0.0
  0
LINE
  5
18D
330
1E
100
AcDbEntity
  8
SIZE
  6
CONTINUOUS
 62
    30
100
AcDbLine
 10
-752.6630526236621
 20
275.9999999999997
 30
0.0
 11
-752.6630526236621
 21
265.9999999999997
 31
0.0
  0
LINE
  5
18E
330
1E
100
AcDbEntity
  8
SIZE
  6
CONTINUOUS
 62
    30
100
AcDbLine
 10
-752.6630526236621
 20
347.9999999999995
 30
0.0
 11
-752.6630526236621
 21
491.2571428571424
 31
0.0
  0
LINE
  5
18F
330
1E
100
AcDbEntity
  8
SIZE
  6
CONTINUOUS
 62
    30
100
AcDbLine
 10
-752.6630526236621
 20
285.9999999999997
 30
0.0
 11
-752.6630526236621
 21
337.9999999999995
 31
0.0
  0
CIRCLE
  5
190
330
1E
100
AcDbEntity
  8
SIZE
  6
CONTINUOUS
 62
    30
100
AcDbCircle
 10
-752.6630526236621
 20
285.9999999999997
 30
0.0
 40
5.0
  0
LINE
  5
191
330
1E
100
AcDbEntity
  8
SIZE
  6
CONTINUOUS
 62
    30
100
AcDbLine
 10
-752.6630526236621
 20
280.9999999999997
 30
0.0
 11
-752.6630526236621
 21
275.9999999999997
 31
0.0
  0
CIRCLE
  5
192
330
1E
100
AcDbEntity
  8
SIZE
  6
CONTINUOUS
 62
    30
100
AcDbCircle
 10
-752.6630526236621
 20
337.9999999999995
 30
0.0
 40
5.0
  0
LINE
  5
193
330
1E
100
AcDbEntity
  8
SIZE
  6
CONTINUOUS
 62
    30
100
AcDbLine
 10
-752.6630526236621
 20
342.9999999999994
 30
0.0
 11
-752.6630526236621
 21
347.9999999999995
 31
0.0
  0
TEXT
  5
194
330
1E
100
AcDbEntity
  8
SIZE
  6
CONTINUOUS
 62
    30
100
AcDbText
 10
-772.6630526236622
 20
377.9999999999994
 30
0.0
 40
64.0
  1
52
 50
90.0
 41
0.9
 72
     1
 11
-772.6630526236622
 21
424.6285714285709
 31
0.0
100
AcDbText
  0
POINT
  5
195
330
1E
100
AcDbEntity
  8
DEFPOINTS
  6
CONTINUOUS
 62
     7
100
AcDbPoint
 10
-473.0000000000003
 20
337.9999999999995
 30
0.0
  0
POINT
  5
196
330
1E
100
AcDbEntity
  8
DEFPOINTS
  6
CONTINUOUS
 62
     7
100
AcDbPoint
 10
-183.0000000000013
 20
285.9999999999994
 30
0.0
  0
POINT
  5
197
330
1E
100
AcDbEntity
  8
DEFPOINTS
  6
CONTINUOUS
 62
     7
100
AcDbPoint
 10
-752.6630526236621
 20
285.9999999999997
 30
0.0
  0
LINE
  5
198
330
1E
100
AcDbEntity
  8
SIZE
  6
CONTINUOUS
 62
    30
100
AcDbLine
 10
-493.0000000000005
 20
337.9999999999995
 30
0.0
 11
-976.4953017397299
 21
337.9999999999997
 31
0.0
  0
LINE
  5
199
330
1E
100
AcDbEntity
  8
SIZE
  6
CONTINUOUS
 62
    30
100
AcDbLine
 10
-537.0
 20
148.0
 30
0.0
 11
-976.4953017397299
 21
148.0000000000001
 31
0.0
  0
LINE
  5
19A
330
1E
100
AcDbEntity
  8
SIZE
  6
CONTINUOUS
 62
    30
100
AcDbLine
 10
-946.4953017397299
 20
327.9999999999997
 30
0.0
 11
-946.4953017397299
 21
158.0000000000001
 31
0.0
  0
CIRCLE
  5
19B
330
1E
100
AcDbEntity
  8
SIZE
  6
CONTINUOUS
 62
    30
100
AcDbCircle
 10
-946.4953017397299
 20
337.9999999999997
 30
0.0
 40
5.0
  0
LINE
  5
19C
330
1E
100
AcDbEntity
  8
SIZE
  6
CONTINUOUS
 62
    30
100
AcDbLine
 10
-946.4953017397299
 20
332.9999999999997
 30
0.0
 11
-946.4953017397299
 21
327.9999999999997
 31
0.0
  0
CIRCLE
  5
19D
330
1E
100
AcDbEntity
  8
SIZE
  6
CONTINUOUS
 62
    30
100
AcDbCircle
 10
-946.4953017397299
 20
148.0000000000001
 30
0.0
 40
5.0
  0
LINE
  5
19E
330
1E
100
AcDbEntity
  8
SIZE
  6
CONTINUOUS
 62
    30
100
AcDbLine
 10
-946.4953017397299
 20
153.0000000000001
 30
0.0
 11
-946.4953017397299
 21
158.0000000000001
 31
0.0
  0
TEXT
  5
19F
330
1E
100
AcDbEntity
  8
SIZE
  6
CONTINUOUS
 62
    30
100
AcDbText
 10
-966.49530173973
 20
174.428571428571
 30
0.0
 40
64.0
  1
190
 50
90.0
 41
0.9
 72
     1
 11
-966.49530173973
 21
242.9999999999995
 31
0.0
100
AcDbText
  0
POINT
  5
1A0
330
1E
100
AcDbEntity
  8
DEFPOINTS
  6
CONTINUOUS
 62
     7
100
AcDbPoint
 10
-473.0000000000003
 20
337.9999999999995
 30
0.0
  0
POINT
  5
1A1
330
1E
100
AcDbEntity
  8
DEFPOINTS
  6
CONTINUOUS
 62
     7
100
AcDbPoint
 10
-517.0
 20
148.0
 30
0.0
  0
POINT
  5
1A2
330
1E
100
AcDbEntity
  8
DEFPOINTS
  6
CONTINUOUS
 62
     7
100
AcDbPoint
 10
-946.4953017397299
 20
148.0000000000001
 30
0.0
  0
LINE
  5
1A3
330
1E
100
AcDbEntity
  8
SIZE
  6
CONTINUOUS
 62
    30
100
AcDbLine
 10
-493.0000000000008
 20
338.0
 30
0.0
 11
-1090.880209331144
 21
338.0
 31
0.0
  0
LINE
  5
1A4
330
1E
100
AcDbEntity
  8
SIZE
  6
CONTINUOUS
 62
    30
100
AcDbLine
 10
-493.0
 20
47.99999999999954
 30
0.0
 11
-1090.880209331144
 21
47.9999999999997
 31
0.0
  0
LINE
  5
1A5
330
1E
100
AcDbEntity
  8
SIZE
  6
CONTINUOUS
 62
    30
100
AcDbLine
 10
-1060.880209331144
 20
328.0
 30
0.0
 11
-1060.880209331144
 21
57.9999999999997
 31
0.0
  0
CIRCLE
  5
1A6
330
1E
100
AcDbEntity
  8
SIZE
  6
CONTINUOUS
 62
    30
100
AcDbCircle
 10
-1060.880209331144
 20
338.0
 30
0.0
 40
5.0
  0
LINE
  5
1A7
330
1E
100
AcDbEntity
  8
SIZE
  6
CONTINUOUS
 62
    30
100
AcDbLine
 10
-1060.880209331144
 20
333.0
 30
0.0
 11
-1060.880209331144
 21
328.0
 31
0.0
  0
CIRCLE
  5
1A8
330
1E
100
AcDbEntity
  8
SIZE
  6
CONTINUOUS
 62
    30
100
AcDbCircle
 10
-1060.880209331144
 20
47.9999999999997
 30
0.0
 40
5.0
  0
LINE
  5
1A9
330
1E
100
AcDbEntity
  8
SIZE
  6
CONTINUOUS
 62
    30
100
AcDbLine
 10
-1060.880209331144
 20
52.9999999999997
 30
0.0
 11
-1060.880209331144
 21
57.9999999999997
 31
0.0
  0
TEXT
  5
1AA
330
1E
100
AcDbEntity
  8
SIZE
  6
CONTINUOUS
 62
    30
100
AcDbText
 10
-1080.880209331144
 20
118.9428571428565
 30
0.0
 40
64.0
  1
290
 50
90.0
 41
0.9
 72
     1
 11
-1080.880209331144
 21
192.9999999999994
 31
0.0
100
AcDbText
  0
POINT
  5
1AB
330
1E
100
AcDbEntity
  8
DEFPOINTS
  6
CONTINUOUS
 62
     7
100
AcDbPoint
 10
-473.0000000000008
 20
338.0
 30
0.0
  0
POINT
  5
1AC
330
1E
100
AcDbEntity
  8
DEFPOINTS
  6
CONTINUOUS
 62
     7
100
AcDbPoint
 10
-473.0
 20
47.99999999999954
 30
0.0
  0
POINT
  5
1AD
330
1E
100
AcDbEntity
  8
DEFPOINTS
  6
CONTINUOUS
 62
     7
100
AcDbPoint
 10
-1060.880209331144
 20
47.9999999999997
 30
0.0
  0
LINE
  5
1AE
330
1E
100
AcDbEntity
  8
SIZE
  6
CONTINUOUS
 62
    30
100
AcDbLine
 10
-625.0
 20
-20.0
 30
0.0
 11
-625.0
 21
-500.2444529999998
 31
0.0
  0
LINE
  5
1AF
330
1E
100
AcDbEntity
  8
SIZE
  6
CONTINUOUS
 62
    30
100
AcDbLine
 10
624.9999999999996
 20
-20.0
 30
0.0
 11
624.9999999999996
 21
-500.2444529999998
 31
0.0
  0
LINE
  5
1B0
330
1E
100
AcDbEntity
  8
SIZE
  6
CONTINUOUS
 62
    30
100
AcDbLine
 10
-615.0
 20
-470.2444529999998
 30
0.0
 11
614.9999999999996
 21
-470.2444529999998
 31
0.0
  0
CIRCLE
  5
1B1
330
1E
100
AcDbEntity
  8
SIZE
  6
CONTINUOUS
 62
    30
100
AcDbCircle
 10
-625.0
 20
-470.2444529999998
 30
0.0
 40
5.0
  0
LINE
  5
1B2
330
1E
100
AcDbEntity
  8
SIZE
  6
CONTINUOUS
 62
    30
100
AcDbLine
 10
-620.0
 20
-470.2444529999998
 30
0.0
 11
-615.0
 21
-470.2444529999998
 31
0.0
  0
CIRCLE
  5
1B3
330
1E
100
AcDbEntity
  8
SIZE
  6
CONTINUOUS
 62
    30
100
AcDbCircle
 10
624.9999999999996
 20
-470.2444529999998
 30
0.0
 40
5.0
  0
LINE
  5
1B4
330
1E
100
AcDbEntity
  8
SIZE
  6
CONTINUOUS
 62
    30
100
AcDbLine
 10
619.9999999999996
 20
-470.2444529999998
 30
0.0
 11
614.9999999999996
 21
-470.2444529999998
 31
0.0
  0
TEXT
  5
1B5
330
1E
100
AcDbEntity
  8
SIZE
  6
CONTINUOUS
 62
    30
100
AcDbText
 10
-96.00000000000022
 20
-450.2444529999997
 30
0.0
 40
64.0
  1
1250
 41
0.9
 72
     1
 11
-0.0000000000002274
 21
-450.2444529999997
 31
0.0
100
AcDbText
  0
POINT
  5
1B6
330
1E
100
AcDbEntity
  8
DEFPOINTS
  6
CONTINUOUS
 62
     7
100
AcDbPoint
 10
-625.0
 20
0.0
 30
0.0
  0
POINT
  5
1B7
330
1E
100
AcDbEntity
  8
DEFPOINTS
  6
CONTINUOUS
 62
     7
100
AcDbPoint
 10
624.9999999999996
 20
0.0
 30
0.0
  0
POINT
  5
1B8
330
1E
100
AcDbEntity
  8
DEFPOINTS
  6
CONTINUOUS
 62
     7
100
AcDbPoint
 10
624.9999999999996
 20
-470.2444529999998
 30
0.0
  0
LINE
  5
1B9
330
1E
100
AcDbEntity
  8
SIZE
  6
CONTINUOUS
 62
    30
100
AcDbLine
 10
-497.0
 20
108.0
 30
0.0
 11
-497.0
 21
-626.4517531121867
 31
0.0
  0
LINE
  5
1BA
330
1E
100
AcDbEntity
  8
SIZE
  6
CONTINUOUS
 62
    30
100
AcDbLine
 10
496.9999999999981
 20
108.0
 30
0.0
 11
496.9999999999981
 21
-626.4517531121867
 31
0.0
  0
LINE
  5
1BB
330
1E
100
AcDbEntity
  8
SIZE
  6
CONTINUOUS
 62
    30
100
AcDbLine
 10
-487.0
 20
-596.4517531121868
 30
0.0
 11
486.999999999998
 21
-596.4517531121868
 31
0.0
  0
CIRCLE
  5
1BC
330
1E
100
AcDbEntity
  8
SIZE
  6
CONTINUOUS
 62
    30
100
AcDbCircle
 10
-497.0
 20
-596.4517531121868
 30
0.0
 40
5.0
  0
LINE
  5
1BD
330
1E
100
AcDbEntity
  8
SIZE
  6
CONTINUOUS
 62
    30
100
AcDbLine
 10
-492.0
 20
-596.4517531121868
 30
0.0
 11
-487.0
 21
-596.4517531121868
 31
0.0
  0
CIRCLE
  5
1BE
330
1E
100
AcDbEntity
  8
SIZE
  6
CONTINUOUS
 62
    30
100
AcDbCircle
 10
496.9999999999981
 20
-596.4517531121868
 30
0.0
 40
5.0
  0
LINE
  5
1BF
330
1E
100
AcDbEntity
  8
SIZE
  6
CONTINUOUS
 62
    30
100
AcDbLine
 10
491.999999999998
 20
-596.4517531121868
 30
0.0
 11
486.999999999998
 21
-596.4517531121868
 31
0.0
  0
TEXT
  5
1C0
330
1E
100
AcDbEntity
  8
SIZE
  6
CONTINUOUS
 62
    30
100
AcDbText
 10
-75.42857142857238
 20
-576.4517531121868
 30
0.0
 40
64.0
  1
994
 41
0.9
 72
     1
 11
-0.0000000000009663
 21
-576.4517531121868
 31
0.0
100
AcDbText
  0
POINT
  5
1C1
330
1E
100
AcDbEntity
  8
DEFPOINTS
  6
CONTINUOUS
 62
     7
100
AcDbPoint
 10
-497.0
 20
128.0
 30
0.0
  0
POINT
  5
1C2
330
1E
100
AcDbEntity
  8
DEFPOINTS
  6
CONTINUOUS
 62
     7
100
AcDbPoint
 10
496.9999999999981
 20
128.0
 30
0.0
  0
POINT
  5
1C3
330
1E
100
AcDbEntity
  8
DEFPOINTS
  6
CONTINUOUS
 62
     7
100
AcDbPoint
 10
496.9999999999981
 20
-596.4517531121868
 30
0.0
  0
LINE
  5
1C4
330
1E
100
AcDbEntity
  8
SIZE
  6
CONTINUOUS
 62
    30
100
AcDbLine
 10
-605.0
 20
-20.0
 30
0.0
 11
-605.0
 21
-208.7615646318786
 31
0.0
  0
LINE
  5
1C5
330
1E
100
AcDbEntity
  8
SIZE
  6
CONTINUOUS
 62
    30
100
AcDbLine
 10
604.9999999999997
 20
-20.0
 30
0.0
 11
604.9999999999997
 21
-208.7615646318786
 31
0.0
  0
LINE
  5
1C6
330
1E
100
AcDbEntity
  8
SIZE
  6
CONTINUOUS
 62
    30
100
AcDbLine
 10
-595.0
 20
-178.7615646318785
 30
0.0
 11
594.9999999999996
 21
-178.7615646318785
 31
0.0
  0
CIRCLE
  5
1C7
330
1E
100
AcDbEntity
  8
SIZE
  6
CONTINUOUS
 62
    30
100
AcDbCircle
 10
-605.0
 20
-178.7615646318785
 30
0.0
 40
5.0
  0
LINE
  5
1C8
330
1E
100
AcDbEntity
  8
SIZE
  6
CONTINUOUS
 62
    30
100
AcDbLine
 10
-600.0
 20
-178.7615646318785
 30
0.0
 11
-595.0
 21
-178.7615646318785
 31
0.0
  0
CIRCLE
  5
1C9
330
1E
100
AcDbEntity
  8
SIZE
  6
CONTINUOUS
 62
    30
100
AcDbCircle
 10
604.9999999999997
 20
-178.7615646318785
 30
0.0
 40
5.0
  0
LINE
  5
1CA
330
1E
100
AcDbEntity
  8
SIZE
  6
CONTINUOUS
 62
    30
100
AcDbLine
 10
599.9999999999996
 20
-178.7615646318785
 30
0.0
 11
594.9999999999996
 21
-178.7615646318785
 31
0.0
  0
TEXT
  5
1CB
330
1E
100
AcDbEntity
  8
SIZE
  6
CONTINUOUS
 62
    30
100
AcDbText
 10
-90.51428571428592
 20
-158.7615646318786
 30
0.0
 40
64.0
  1
1210
 41
0.9
 72
     1
 11
-0.0000000000002274
 21
-158.7615646318786
 31
0.0
100
AcDbText
  0
POINT
  5
1CC
330
1E
100
AcDbEntity
  8
DEFPOINTS
  6
CONTINUOUS
 62
     7
100
AcDbPoint
 10
-605.0
 20
0.0
 30
0.0
  0
POINT
  5
1CD
330
1E
100
AcDbEntity
  8
DEFPOINTS
  6
CONTINUOUS
 62
     7
100
AcDbPoint
 10
604.9999999999997
 20
0.0
 30
0.0
  0
POINT
  5
1CE
330
1E
100
AcDbEntity
  8
DEFPOINTS
  6
CONTINUOUS
 62
     7
100
AcDbPoint
 10
604.9999999999997
 20
-178.7615646318785
 30
0.0
  0
LINE
  5
1CF
330
1E
100
AcDbEntity
  8
SIZE
  6
CONTINUOUS
 62
    30
100
AcDbLine
 10
-473.0000000000003
 20
357.9999999999994
 30
0.0
 11
-473.0000000000002
 21
871.6490106821749
 31
0.0
  0
LINE
  5
1D0
330
1E
100
AcDbEntity
  8
SIZE
  6
CONTINUOUS
 62
    30
100
AcDbLine
 10
472.999999999998
 20
358.0000000000004
 30
0.0
 11
472.9999999999981
 21
871.6490106821749
 31
0.0
  0
LINE
  5
1D1
330
1E
100
AcDbEntity
  8
SIZE
  6
CONTINUOUS
 62
    30
100
AcDbLine
 10
-463.0000000000004
 20
841.6490106821752
 30
0.0
 11
462.9999999999982
 21
841.6490106821752
 31
0.0
  0
CIRCLE
  5
1D2
330
1E
100
AcDbEntity
  8
SIZE
  6
CONTINUOUS
 62
    30
100
AcDbCircle
 10
-473.0000000000002
 20
841.6490106821752
 30
0.0
 40
5.0
  0
LINE
  5
1D3
330
1E
100
AcDbEntity
  8
SIZE
  6
CONTINUOUS
 62
    30
100
AcDbLine
 10
-468.0000000000002
 20
841.6490106821752
 30
0.0
 11
-463.0000000000002
 21
841.6490106821752
 31
0.0
  0
CIRCLE
  5
1D4
330
1E
100
AcDbEntity
  8
SIZE
  6
CONTINUOUS
 62
    30
100
AcDbCircle
 10
472.9999999999981
 20
841.6490106821752
 30
0.0
 40
5.0
  0
LINE
  5
1D5
330
1E
100
AcDbEntity
  8
SIZE
  6
CONTINUOUS
 62
    30
100
AcDbLine
 10
467.9999999999981
 20
841.6490106821752
 30
0.0
 11
462.9999999999982
 21
841.6490106821752
 31
0.0
  0
TEXT
  5
1D6
330
1E
100
AcDbEntity
  8
SIZE
  6
CONTINUOUS
 62
    30
100
AcDbText
 10
-72.68571428571537
 20
861.6490106821753
 30
0.0
 40
64.0
  1
946
 41
0.9
 72
     1
 11
-0.00000000000108
 21
861.6490106821753
 31
0.0
100
AcDbText
  0
POINT
  5
1D7
330
1E
100
AcDbEntity
  8
DEFPOINTS
  6
CONTINUOUS
 62
     7
100
AcDbPoint
 10
-473.0000000000003
 20
337.9999999999995
 30
0.0
  0
POINT
  5
1D8
330
1E
100
AcDbEntity
  8
DEFPOINTS
  6
CONTINUOUS
 62
     7
100
AcDbPoint
 10
472.999999999998
 20
338.0000000000003
 30
0.0
  0
POINT
  5
1D9
330
1E
100
AcDbEntity
  8
DEFPOINTS
  6
CONTINUOUS
 62
     7
100
AcDbPoint
 10
472.9999999999981
 20
841.6490106821752
 30
0.0
  0
LINE
  5
1DA
330
1E
100
AcDbEntity
  8
SIZE
  6
CONTINUOUS
 62
    30
100
AcDbLine
 10
0.0000000000000012
 20
415.8640660000001
 30
0.0
 11
0.0000000000000222
 21
758.1090150111398
 31
0.0
  0
LINE
  5
1DB
330
1E
100
AcDbEntity
  8
SIZE
  6
CONTINUOUS
 62
    30
100
AcDbLine
 10
472.9999999999985
 20
358.0
 30
0.0
 11
472.9999999999985
 21
758.1090150111398
 31
0.0
  0
LINE
  5
1DC
330
1E
100
AcDbEntity
  8
SIZE
  6
CONTINUOUS
 62
    30
100
AcDbLine
 10
10.00000000000001
 20
728.1090150111398
 30
0.0
 11
462.9999999999985
 21
728.1090150111398
 31
0.0
  0
CIRCLE
  5
1DD
330
1E
100
AcDbEntity
  8
SIZE
  6
CONTINUOUS
 62
    30
100
AcDbCircle
 10
0.0000000000000203
 20
728.1090150111398
 30
0.0
 40
5.0
  0
LINE
  5
1DE
330
1E
100
AcDbEntity
  8
SIZE
  6
CONTINUOUS
 62
    30
100
AcDbLine
 10
5.00000000000002
 20
728.1090150111398
 30
0.0
 11
10.00000000000001
 21
728.1090150111398
 31
0.0
  0
CIRCLE
  5
1DF
330
1E
100
AcDbEntity
  8
SIZE
  6
CONTINUOUS
 62
    30
100
AcDbCircle
 10
472.9999999999985
 20
728.1090150111398
 30
0.0
 40
5.0
  0
LINE
  5
1E0
330
1E
100
AcDbEntity
  8
SIZE
  6
CONTINUOUS
 62
    30
100
AcDbLine
 10
467.9999999999985
 20
728.1090150111398
 30
0.0
 11
462.9999999999985
 21
728.1090150111398
 31
0.0
  0
TEXT
  5
1E1
330
1E
100
AcDbEntity
  8
SIZE
  6
CONTINUOUS
 62
    30
100
AcDbText
 10
162.4428571428564
 20
748.1090150111398
 30
0.0
 40
64.0
  1
473
 41
0.9
 72
     1
 11
236.4999999999992
 21
748.1090150111398
 31
0.0
100
AcDbText
  0
POINT
  5
1E2
330
1E
100
AcDbEntity
  8
DEFPOINTS
  6
CONTINUOUS
 62
     7
100
AcDbPoint
 10
0.0
 20
395.864066
 30
0.0
  0
POINT
  5
1E3
330
1E
100
AcDbEntity
  8
DEFPOINTS
  6
CONTINUOUS
 62
     7
100
AcDbPoint
 10
472.9999999999985
 20
338.0
 30
0.0
  0
POINT
  5
1E4
330
1E
100
AcDbEntity
  8
DEFPOINTS
  6
CONTINUOUS
 62
     7
100
AcDbPoint
 10
472.9999999999985
 20
728.1090150111398
 30
0.0
  0
LINE
  5
1E5
330
1E
100
AcDbEntity
  8
SIZE
  6
CONTINUOUS
 62
    30
100
AcDbLine
 10
-183.0000000000008
 20
344.0
 30
0.0
 11
-183.0000000000008
 21
637.3869999999996
 31
0.0
  0
LINE
  5
1E6
330
1E
100
AcDbEntity
  8
SIZE
  6
CONTINUOUS
 62
    30
100
AcDbLine
 10
251.9999999999991
 20
344.0
 30
0.0
 11
251.9999999999991
 21
637.3869999999996
 31
0.0
  0
LINE
  5
1E7
330
1E
100
AcDbEntity
  8
SIZE
  6
CONTINUOUS
 62
    30
100
AcDbLine
 10
-173.0000000000007
 20
607.3869999999995
 30
0.0
 11
241.9999999999991
 21
607.3869999999995
 31
0.0
  0
CIRCLE
  5
1E8
330
1E
100
AcDbEntity
  8
SIZE
  6
CONTINUOUS
 62
    30
100
AcDbCircle
 10
-183.0000000000008
 20
607.3869999999995
 30
0.0
 40
5.0
  0
LINE
  5
1E9
330
1E
100
AcDbEntity
  8
SIZE
  6
CONTINUOUS
 62
    30
100
AcDbLine
 10
-178.0000000000008
 20
607.3869999999995
 30
0.0
 11
-173.0000000000007
 21
607.3869999999995
 31
0.0
  0
CIRCLE
  5
1EA
330
1E
100
AcDbEntity
  8
SIZE
  6
CONTINUOUS
 62
    30
100
AcDbCircle
 10
251.9999999999991
 20
607.3869999999995
 30
0.0
 40
5.0
  0
LINE
  5
1EB
330
1E
100
AcDbEntity
  8
SIZE
  6
CONTINUOUS
 62
    30
100
AcDbLine
 10
246.999999999999
 20
607.3869999999995
 30
0.0
 11
241.9999999999991
 21
607.3869999999995
 31
0.0
  0
TEXT
  5
1EC
330
1E
100
AcDbEntity
  8
SIZE
  6
CONTINUOUS
 62
    30
100
AcDbText
 10
-39.55714285714372
 20
627.3869999999996
 30
0.0
 40
64.0
  1
435
 41
0.9
 72
     1
 11
34.49999999999912
 21
627.3869999999996
 31
0.0
100
AcDbText
  0
POINT
  5
1ED
330
1E
100
AcDbEntity
  8
DEFPOINTS
  6
CONTINUOUS
 62
     7
100
AcDbPoint
 10
-183.0000000000008
 20
324.0
 30
0.0
  0
POINT
  5
1EE
330
1E
100
AcDbEntity
  8
DEFPOINTS
  6
CONTINUOUS
 62
     7
100
AcDbPoint
 10
251.9999999999991
 20
324.0
 30
0.0
  0
POINT
  5
1EF
330
1E
100
AcDbEntity
  8
DEFPOINTS
  6
CONTINUOUS
 62
     7
100
AcDbPoint
 10
251.9999999999991
 20
607.3869999999995
 30
0.0
  0
LINE
  5
1F0
330
1E
100
AcDbEntity
  8
OUTLINE
  6
CONTINUOUS
 62
     3
100
AcDbLine
 10
472.999999999998
 20
338.0000000000003
 30
0.0
 11
-473.0
 21
337.9999999999995
 31
0.0
  0
LINE
  5
1F1
330
1E
100
AcDbEntity
  8
OUTLINE
  6
CONTINUOUS
 62
     3
100
AcDbLine
 10
593.0
 20
44.99999999999952
 30
0.0
 11
-593.0000000000005
 21
44.99999999999952
 31
0.0
  0
LINE
  5
1F2
330
1E
100
AcDbEntity
  8
OUTLINE
  6
CONTINUOUS
 62
     3
100
AcDbLine
 10
625.0
 20
0.0000000000004547
 30
0.0
 11
-625.0
 21
0.0000000000004547
 31
0.0
  0
LINE
  5
1F3
330
1E
100
AcDbEntity
  8
OUTLINE
  6
CONTINUOUS
 62
     3
100
AcDbLine
 10
618.0
 20
-7.999999999999545
 30
0.0
 11
-618.0
 21
-7.999999999999545
 31
0.0
  0
LINE
  5
1F4
330
1E
100
AcDbEntity
  8
OUTLINE
  6
CONTINUOUS
 62
     3
100
AcDbLine
 10
-473.0
 20
148.0000000000003
 30
0.0
 11
-523.0
 21
148.0000000000003
 31
0.0
  0
LINE
  5
1F5
330
1E
100
AcDbEntity
  8
OUTLINE
  6
CONTINUOUS
 62
     3
100
AcDbLine
 10
-473.0
 20
145.6999999999993
 30
0.0
 11
-523.0
 21
145.6999999999993
 31
0.0
  0
LINE
  5
1F6
330
1E
100
AcDbEntity
  8
OUTLINE
  6
CONTINUOUS
 62
     3
100
AcDbLine
 10
-593.0
 20
45.00000000000045
 30
0.0
 11
-593.0
 21
0.0000000000004547
 31
0.0
  0
ARC
  5
1F7
330
1E
100
AcDbEntity
  8
OUTLINE
  6
CONTINUOUS
 62
     3
100
AcDbCircle
 10
-618.0
 20
-0.9999999999995452
 30
0.0
 40
7.0
100
AcDbArc
 50
180.0
 51
270.0
  0
LINE
  5
1F8
330
1E
100
AcDbEntity
  8
OUTLINE
  6
CONTINUOUS
 62
     3
100
AcDbLine
 10
-625.0
 20
-0.9999999999995452
 30
0.0
 11
-625.0
 21
0.0000000000004547
 31
0.0
  0
LINE
  5
1F9
330
1E
100
AcDbEntity
  8
OUTLINE
  6
CONTINUOUS
 62
     3
100
AcDbLine
 10
-523.0
 20
148.0000000000003
 30
0.0
 11
-523.0
 21
145.7000000000001
 31
0.0
  0
LINE
  5
1FA
330
1E
100
AcDbEntity
  8
OUTLINE
  6
CONTINUOUS
 62
     3
100
AcDbLine
 10
-473.0000000000008
 20
338.0000000000003
 30
0.0
 11
-473.0000000000008
 21
45.00000000000045
 31
0.0
  0
LINE
  5
1FB
330
1E
100
AcDbEntity
  8
OUTLINE
  6
CONTINUOUS
 62
     3
100
AcDbLine
 10
586.9999999999992
 20
237.9999999999985
 30
0.0
 11
586.999999999998
 21
187.9999999999994
 31
0.0
  0
LINE
  5
1FC
330
1E
100
AcDbEntity
  8
OUTLINE
  6
CONTINUOUS
 62
     3
100
AcDbLine
 10
472.999999999998
 20
338.0000000000003
 30
0.0
 11
472.999999999998
 21
45.00000000000045
 31
0.0
  0
ARC
  5
1FD
330
1E
100
AcDbEntity
  8
OUTLINE
  6
CONTINUOUS
 62
     3
100
AcDbCircle
 10
618.0
 20
-1.000000000000454
 30
0.0
 40
7.0
100
AcDbArc
 50
270.0
 51
0.0
  0
LINE
  5
1FE
330
1E
100
AcDbEntity
  8
OUTLINE
  6
CONTINUOUS
 62
     3
100
AcDbLine
 10
593.0
 20
44.99999999999952
 30
0.0
 11
593.0
 21
-0.0000000000004547
 31
0.0
  0
LINE
  5
1FF
330
1E
100
AcDbEntity
  8
OUTLINE
  6
CONTINUOUS
 62
     3
100
AcDbLine
 10
522.999999999998
 20
148.0000000000003
 30
0.0
 11
472.999999999998
 21
148.0000000000003
 31
0.0
  0
LINE
  5
200
330
1E
100
AcDbEntity
  8
OUTLINE
  6
CONTINUOUS
 62
     3
100
AcDbLine
 10
472.999999999998
 20
156.0800000000003
 30
0.0
 11
586.9999999999992
 21
188.0000000000004
 31
0.0
  0
LINE
  5
201
330
1E
100
AcDbEntity
  8
OUTLINE
  6
CONTINUOUS
 62
     3
100
AcDbLine
 10
522.999999999998
 20
145.6999999999993
 30
0.0
 11
472.999999999998
 21
145.6999999999993
 31
0.0
  0
LINE
  5
202
330
1E
100
AcDbEntity
  8
OUTLINE
  6
CONTINUOUS
 62
     3
100
AcDbLine
 10
502.999999999998
 20
84.49999999999954
 30
0.0
 11
502.999999999998
 21
59.49999999999954
 31
0.0
  0
LINE
  5
203
330
1E
100
AcDbEntity
  8
OUTLINE
  6
CONTINUOUS
 62
     3
100
AcDbLine
 10
472.999999999998
 20
59.49999999999954
 30
0.0
 11
502.999999999998
 21
59.49999999999864
 31
0.0
  0
LINE
  5
204
330
1E
100
AcDbEntity
  8
OUTLINE
  6
CONTINUOUS
 62
     3
100
AcDbLine
 10
472.999999999998
 20
84.49999999999954
 30
0.0
 11
502.999999999998
 21
84.49999999999862
 31
0.0
  0
LINE
  5
205
330
1E
100
AcDbEntity
  8
OUTLINE
  6
CONTINUOUS
 62
     3
100
AcDbLine
 10
522.999999999998
 20
148.0000000000003
 30
0.0
 11
522.999999999998
 21
145.7000000000001
 31
0.0
  0
LINE
  5
206
330
1E
100
AcDbEntity
  8
OUTLINE
  6
CONTINUOUS
 62
     3
100
AcDbLine
 10
625.0
 20
-0.0000000000004547
 30
0.0
 11
625.0
 21
-1.000000000000454
 31
0.0
  0
LINE
  5
207
330
1E
100
AcDbEntity
  8
OUTLINE
  6
CONTINUOUS
 62
     3
100
AcDbLine
 10
472.999999999998
 20
237.9999999999985
 30
0.0
 11
586.9999999999992
 21
237.9999999999985
 31
0.0
  0
LINE
  5
208
330
1E
100
AcDbEntity
  8
SIZE
  6
CONTINUOUS
 62
    30
100
AcDbLine
 10
-183.0000000000013
 20
195.9999999999994
 30
0.0
 11
-183.0000000000013
 21
219.3809234549794
 31
0.0
  0
LINE
  5
209
330
1E
100
AcDbEntity
  8
SIZE
  6
CONTINUOUS
 62
    30
100
AcDbLine
 10
251.9999999999985
 20
195.999999999999
 30
0.0
 11
251.9999999999985
 21
219.3809234549794
 31
0.0
  0
LINE
  5
20A
330
1E
100
AcDbEntity
  8
SIZE
  6
CONTINUOUS
 62
    30
100
AcDbLine
 10
-173.0000000000013
 20
189.3809234549794
 30
0.0
 11
241.9999999999985
 21
189.3809234549794
 31
0.0
  0
CIRCLE
  5
20B
330
1E
100
AcDbEntity
  8
SIZE
  6
CONTINUOUS
 62
    30
100
AcDbCircle
 10
-183.0000000000013
 20
189.3809234549794
 30
0.0
 40
5.0
  0
LINE
  5
20C
330
1E
100
AcDbEntity
  8
SIZE
  6
CONTINUOUS
 62
    30
100
AcDbLine
 10
-178.0000000000013
 20
189.3809234549794
 30
0.0
 11
-173.0000000000013
 21
189.3809234549794
 31
0.0
  0
CIRCLE
  5
20D
330
1E
100
AcDbEntity
  8
SIZE
  6
CONTINUOUS
 62
    30
100
AcDbCircle
 10
251.9999999999985
 20
189.3809234549794
 30
0.0
 40
5.0
  0
LINE
  5
20E
330
1E
100
AcDbEntity
  8
SIZE
  6
CONTINUOUS
 62
    30
100
AcDbLine
 10
246.9999999999985
 20
189.3809234549794
 30
0.0
 11
241.9999999999985
 21
189.3809234549794
 31
0.0
  0
TEXT
  5
20F
330
1E
100
AcDbEntity
  8
SIZE
  6
CONTINUOUS
 62
    30
100
AcDbText
 10
-39.55714285714422
 20
209.3809234549794
 30
0.0
 40
64.0
  1
435
 41
0.9
 72
     1
 11
34.49999999999862
 21
209.3809234549794
 31
0.0
100
AcDbText
  0
POINT
  5
210
330
1E
100
AcDbEntity
  8
DEFPOINTS
  6
CONTINUOUS
 62
     7
100
AcDbPoint
 10
-183.0000000000013
 20
175.9999999999994
 30
0.0
  0
POINT
  5
211
330
1E
100
AcDbEntity
  8
DEFPOINTS
  6
CONTINUOUS
 62
     7
100
AcDbPoint
 10
251.9999999999985
 20
175.999999999999
 30
0.0
  0
POINT
  5
212
330
1E
100
AcDbEntity
  8
DEFPOINTS
  6
CONTINUOUS
 62
     7
100
AcDbPoint
 10
251.9999999999985
 20
189.3809234549794
 30
0.0
  0
ENDSEC
  0
SECTION
  2
OBJECTS
  0
DICTIONARY
  5
C
330
0
100
AcDbDictionary
  3
ACAD_GROUP
350
D
  3
ACAD_LAYOUT
350
19
  3
ACAD_MLINESTYLE
350
16
  3
ACAD_PLOTSETTINGS
350
18
  3
ACAD_PLOTSTYLENAME
350
E
  3
ACDBHEADERROUNDTRIPXREC
350
215
  0
DICTIONARY
  5
238
330
1E
100
AcDbDictionary
280
     1
  3
ACAD_LAYOUTSELFREF
360
239
  0
DICTIONARY
  5
236
330
1A
100
AcDbDictionary
280
     1
  3
ACAD_LAYOUTSELFREF
360
237
  0
DICTIONARY
  5
D
102
{ACAD_REACTORS
330
C
102
}
330
C
100
AcDbDictionary
  0
DICTIONARY
  5
19
102
{ACAD_REACTORS
330
C
102
}
330
C
100
AcDbDictionary
  0
DICTIONARY
  5
16
102
{ACAD_REACTORS
330
C
102
}
330
C
100
AcDbDictionary
  3
STANDARD
350
17
  0
DICTIONARY
  5
18
102
{ACAD_REACTORS
330
C
102
}
330
C
100
AcDbDictionary
  0
ACDBDICTIONARYWDFLT
  5
E
102
{ACAD_REACTORS
330
C
102
}
330
C
100
AcDbDictionary
281
     1
  3
Normal
350
F
100
AcDbDictionaryWithDefault
340
F
  0
DICTIONARY
  5
215
102
{ACAD_REACTORS
330
C
102
}
330
C
100
AcDbDictionary
  3
CEPSNTYPE
350
21F
  3
DIMSTYLEDATA
350
223
  3
FINGERPRINTGUID
350
220
  3
HYPERLINKBASE
350
218
  3
INSUNITS
350
21E
  3
LAYOUTDICT
350
21A
  3
LWETCUNION
350
21D
  3
PLOTSETDICT
350
21B
  3
PLOTSTYLNAMDICT
350
21C
  3
PSVPSCALE
350
222
  3
PUCSBASE
350
226
  3
PUCSORGBACK
350
22C
  3
PUCSORGBOTTOM
350
228
  3
PUCSORGFRONT
350
22B
  3
PUCSORGLEFT
350
229
  3
PUCSORGRIGHT
350
22A
  3
PUCSORGTOP
350
227
  3
PUCSORTHOREF
350
224
  3
PUCSORTHOVIEW
350
225
  3
STYLESHEET
350
219
  3
TSTACKALIGN
350
216
  3
TSTACKSIZE
350
217
  3
UCSBASE
350
22F
  3
UCSORGBACK
350
235
  3
UCSORGBOTTOM
350
231
  3
UCSORGFRONT
350
234
  3
UCSORGLEFT
350
232
  3
UCSORGRIGHT
350
233
  3
UCSORGTOP
350
230
  3
UCSORTHOREF
350
22D
  3
UCSORTHOVIEW
350
22E
  3
VERSIONGUID
350
221
  0
XRECORD
  5
239
102
{ACAD_REACTORS
330
238
102
}
330
238
100
AcDbXrecord
340
1E
  0
XRECORD
  5
237
102
{ACAD_REACTORS
330
236
102
}
330
236
100
AcDbXrecord
340
1A
  0
MLINESTYLE
  5
17
102
{ACAD_REACTORS
330
16
102
}
330
16
100
AcDbMlineStyle
  2
STANDARD
 70
     0
  3

 62
   256
 51
90.0
 52
90.0
 71
     2
 49
0.5
 62
   256
  6
BYLAYER
 49
-0.5
 62
   256
  6
BYLAYER
  0
ACDBPLACEHOLDER
  5
F
102
{ACAD_REACTORS
330
E
102
}
330
E
100
AcDbPlaceHolder
280
     0
  0
XRECORD
  5
21F
102
{ACAD_REACTORS
330
215
102
}
330
215
100
AcDbXrecord
 90
        0
  0
XRECORD
  5
223
102
{ACAD_REACTORS
330
215
102
}
330
215
100
AcDbXrecord
1000
DSTYLE
1002
{
1070
   341
340
39
1070
   342
340
39
1070
   343
340
39
1070
   344
340
34
1002
}
  0
XRECORD
  5
220
102
{ACAD_REACTORS
330
215
102
}
330
215
100
AcDbXrecord
  1
{646D6F82-2CDA-4F0F-B439-58D359C7E35A}
  0
XRECORD
  5
218
102
{ACAD_REACTORS
330
215
102
}
330
215
100
AcDbXrecord
  1

  0
XRECORD
  5
21E
102
{ACAD_REACTORS
330
215
102
}
330
215
100
AcDbXrecord
 90
        0
  0
XRECORD
  5
21A
102
{ACAD_REACTORS
330
215
102
}
330
215
100
AcDbXrecord
340
19
  0
XRECORD
  5
21D
102
{ACAD_REACTORS
330
215
102
}
330
215
100
AcDbXrecord
 90
    10781
  0
XRECORD
  5
21B
102
{ACAD_REACTORS
330
215
102
}
330
215
100
AcDbXrecord
340
18
  0
XRECORD
  5
21C
102
{ACAD_REACTORS
330
215
102
}
330
215
100
AcDbXrecord
340
E
  0
XRECORD
  5
222
102
{ACAD_REACTORS
330
215
102
}
330
215
100
AcDbXrecord
 40
0.0
  0
XRECORD
  5
226
102
{ACAD_REACTORS
330
215
102
}
330
215
100
AcDbXrecord
340
0
  0
XRECORD
  5
22C
102
{ACAD_REACTORS
330
215
102
}
330
215
100
AcDbXrecord
 10
0.0
 20
0.0
 30
0.0
  0
XRECORD
  5
228
102
{ACAD_REACTORS
330
215
102
}
330
215
100
AcDbXrecord
 10
0.0
 20
0.0
 30
0.0
  0
XRECORD
  5
22B
102
{ACAD_REACTORS
330
215
102
}
330
215
100
AcDbXrecord
 10
0.0
 20
0.0
 30
0.0
  0
XRECORD
  5
229
102
{ACAD_REACTORS
330
215
102
}
330
215
100
AcDbXrecord
 10
0.0
 20
0.0
 30
0.0
  0
XRECORD
  5
22A
102
{ACAD_REACTORS
330
215
102
}
330
215
100
AcDbXrecord
 10
0.0
 20
0.0
 30
0.0
  0
XRECORD
  5
227
102
{ACAD_REACTORS
330
215
102
}
330
215
100
AcDbXrecord
 10
0.0
 20
0.0
 30
0.0
  0
XRECORD
  5
224
102
{ACAD_REACTORS
330
215
102
}
330
215
100
AcDbXrecord
340
0
  0
XRECORD
  5
225
102
{ACAD_REACTORS
330
215
102
}
330
215
100
AcDbXrecord
 70
     0
  0
XRECORD
  5
219
102
{ACAD_REACTORS
330
215
102
}
330
215
100
AcDbXrecord
  1

  0
XRECORD
  5
216
102
{ACAD_REACTORS
330
215
102
}
330
215
100
AcDbXrecord
 90
        1
  0
XRECORD
  5
217
102
{ACAD_REACTORS
330
215
102
}
330
215
100
AcDbXrecord
 90
       70
  0
XRECORD
  5
22F
102
{ACAD_REACTORS
330
215
102
}
330
215
100
AcDbXrecord
340
0
  0
XRECORD
  5
235
102
{ACAD_REACTORS
330
215
102
}
330
215
100
AcDbXrecord
 10
0.0
 20
0.0
 30
0.0
  0
XRECORD
  5
231
102
{ACAD_REACTORS
330
215
102
}
330
215
100
AcDbXrecord
 10
0.0
 20
0.0
 30
0.0
  0
XRECORD
  5
234
102
{ACAD_REACTORS
330
215
102
}
330
215
100
AcDbXrecord
 10
0.0
 20
0.0
 30
0.0
  0
XRECORD
  5
232
102
{ACAD_REACTORS
330
215
102
}
330
215
100
AcDbXrecord
 10
0.0
 20
0.0
 30
0.0
  0
XRECORD
  5
233
102
{ACAD_REACTORS
330
215
102
}
330
215
100
AcDbXrecord
 10
0.0
 20
0.0
 30
0.0
  0
XRECORD
  5
230
102
{ACAD_REACTORS
330
215
102
}
330
215
100
AcDbXrecord
 10
0.0
 20
0.0
 30
0.0
  0
XRECORD
  5
22D
102
{ACAD_REACTORS
330
215
102
}
330
215
100
AcDbXrecord
340
0
  0
XRECORD
  5
22E
102
{ACAD_REACTORS
330
215
102
}
330
215
100
AcDbXrecord
 70
     0
  0
XRECORD
  5
221
102
{ACAD_REACTORS
330
215
102
}
330
215
100
AcDbXrecord
  1
{C9E9FBDF-6654-4E91-A114-A216B37715CC}
  0
ENDSEC
  0
EOF
