  0
SECTION
  2
HEADER
  9
$ACADVER
  1
AC1014
  9
$ACADMAINTVER
 70
     9
  9
$DWGCODEPAGE
  3
ANSI_932
  9
$INSBASE
 10
0.0
 20
0.0
 30
0.0
  9
$EXTMIN
 10
-1366.868522015351
 20
-1902.436994773344
 30
0.0
  9
$EXTMAX
 10
2195.215625178256
 20
1312.760700924169
 30
0.0
  9
$LIMMIN
 10
-4200.0
 20
-2970.0
  9
$LIMMAX
 10
4200.0
 20
2970.0
  9
$ORTHOMODE
 70
     0
  9
$REGENMODE
 70
     1
  9
$FILLMODE
 70
     1
  9
$QTEXTMODE
 70
     0
  9
$MIRRTEXT
 70
     0
  9
$DRAGMODE
 70
     2
  9
$LTSCALE
 40
20.0
  9
$OSMODE
 70
    37
  9
$ATTMODE
 70
     1
  9
$TEXTSIZE
 40
64.0
  9
$TRACEWID
 40
0.05
  9
$TEXTSTYLE
  7
STANDARD
  9
$CLAYER
  8
0
  9
$CELTYPE
  6
CONTINUOUS
  9
$CECOLOR
 62
     7
  9
$CELTSCALE
 40
1.0
  9
$DELOBJ
 70
     1
  9
$DISPSILH
 70
     0
  9
$DIMSCALE
 40
1.0
  9
$DIMASZ
 40
10.0
  9
$DIMEXO
 40
20.0
  9
$DIMDLI
 40
200.0
  9
$DIMRND
 40
0.0
  9
$DIMDLE
 40
0.0
  9
$DIMEXE
 40
30.0
  9
$DIMTP
 40
0.0
  9
$DIMTM
 40
0.0
  9
$DIMTXT
 40
64.0
  9
$DIMCEN
 40
0.0
  9
$DIMTSZ
 40
0.0
  9
$DIMTOL
 70
     0
  9
$DIMLIM
 70
     0
  9
$DIMTIH
 70
     0
  9
$DIMTOH
 70
     0
  9
$DIMSE1
 70
     0
  9
$DIMSE2
 70
     0
  9
$DIMTAD
 70
     1
  9
$DIMZIN
 70
     8
  9
$DIMBLK
  1
DOTBLANK
  9
$DIMASO
 70
     1
  9
$DIMSHO
 70
     0
  9
$DIMPOST
  1

  9
$DIMAPOST
  1

  9
$DIMALT
 70
     0
  9
$DIMALTD
 70
     2
  9
$DIMALTF
 40
25.4
  9
$DIMLFAC
 40
1.0
  9
$DIMTOFL
 70
     1
  9
$DIMTVP
 40
0.0
  9
$DIMTIX
 70
     1
  9
$DIMSOXD
 70
     0
  9
$DIMSAH
 70
     0
  9
$DIMBLK1
  1
DOTBLANK
  9
$DIMBLK2
  1
ORIGIN
  9
$DIMSTYLE
  2
STANDARD
  9
$DIMCLRD
 70
     0
  9
$DIMCLRE
 70
     0
  9
$DIMCLRT
 70
     0
  9
$DIMTFAC
 40
1.0
  9
$DIMGAP
 40
0.09
  9
$DIMJUST
 70
     0
  9
$DIMSD1
 70
     0
  9
$DIMSD2
 70
     0
  9
$DIMTOLJ
 70
     1
  9
$DIMTZIN
 70
     0
  9
$DIMALTZ
 70
     0
  9
$DIMALTTZ
 70
     0
  9
$DIMFIT
 70
     3
  9
$DIMUPT
 70
     0
  9
$DIMUNIT
 70
     2
  9
$DIMDEC
 70
     4
  9
$DIMTDEC
 70
     4
  9
$DIMALTU
 70
     2
  9
$DIMALTTD
 70
     2
  9
$DIMTXSTY
  7
STANDARD
  9
$DIMAUNIT
 70
     0
  9
$LUNITS
 70
     2
  9
$LUPREC
 70
     4
  9
$SKETCHINC
 40
0.1
  9
$FILLETRAD
 40
0.0
  9
$AUNITS
 70
     1
  9
$AUPREC
 70
     3
  9
$MENU
  1
ACAD
  9
$ELEVATION
 40
0.0
  9
$PELEVATION
 40
0.0
  9
$THICKNESS
 40
0.0
  9
$LIMCHECK
 70
     0
  9
$BLIPMODE
 70
     0
  9
$CHAMFERA
 40
0.0
  9
$CHAMFERB
 40
0.0
  9
$CHAMFERC
 40
0.0
  9
$CHAMFERD
 40
0.0
  9
$SKPOLY
 70
     0
  9
$TDCREATE
 40
2449761.493622685
  9
$TDUPDATE
 40
2453973.713069919
  9
$TDINDWG
 40
1.0291500926
  9
$TDUSRTIMER
 40
1.0291499074
  9
$USRTIMER
 70
     1
  9
$ANGBASE
 50
0.0
  9
$ANGDIR
 70
     0
  9
$PDMODE
 70
    35
  9
$PDSIZE
 40
100.0
  9
$PLINEWID
 40
0.0
  9
$COORDS
 70
     2
  9
$SPLFRAME
 70
     0
  9
$SPLINETYPE
 70
     6
  9
$SPLINESEGS
 70
     8
  9
$ATTDIA
 70
     0
  9
$ATTREQ
 70
     1
  9
$HANDLING
 70
-16383
  9
$HANDSEED
  5
2F1
  9
$SURFTAB1
 70
     6
  9
$SURFTAB2
 70
     6
  9
$SURFTYPE
 70
     6
  9
$SURFU
 70
     6
  9
$SURFV
 70
     6
  9
$UCSNAME
  2

  9
$UCSORG
 10
0.0
 20
0.0
 30
0.0
  9
$UCSXDIR
 10
1.0
 20
0.0
 30
0.0
  9
$UCSYDIR
 10
0.0
 20
1.0
 30
0.0
  9
$PUCSNAME
  2

  9
$PUCSORG
 10
0.0
 20
0.0
 30
0.0
  9
$PUCSXDIR
 10
1.0
 20
0.0
 30
0.0
  9
$PUCSYDIR
 10
0.0
 20
1.0
 30
0.0
  9
$USERI1
 70
     0
  9
$USERI2
 70
     0
  9
$USERI3
 70
     0
  9
$USERI4
 70
     0
  9
$USERI5
 70
     0
  9
$USERR1
 40
20.0
  9
$USERR2
 40
0.0
  9
$USERR3
 40
0.0
  9
$USERR4
 40
0.0
  9
$USERR5
 40
0.0
  9
$WORLDVIEW
 70
     1
  9
$SHADEDGE
 70
     3
  9
$SHADEDIF
 70
    70
  9
$TILEMODE
 70
     1
  9
$MAXACTVP
 70
    64
  9
$PINSBASE
 10
0.0
 20
0.0
 30
0.0
  9
$PLIMCHECK
 70
     0
  9
$PEXTMIN
 10
1.000000000000000E+20
 20
1.000000000000000E+20
 30
1.000000000000000E+20
  9
$PEXTMAX
 10
-1.000000000000000E+20
 20
-1.000000000000000E+20
 30
-1.000000000000000E+20
  9
$PLIMMIN
 10
0.0
 20
0.0
  9
$PLIMMAX
 10
12.0
 20
9.0
  9
$UNITMODE
 70
     0
  9
$VISRETAIN
 70
     1
  9
$PLINEGEN
 70
     0
  9
$PSLTSCALE
 70
     1
  9
$TREEDEPTH
 70
  3020
  9
$PICKSTYLE
 70
     0
  9
$CMLSTYLE
  2
STANDARD
  9
$CMLJUST
 70
     0
  9
$CMLSCALE
 40
1.0
  9
$PROXYGRAPHICS
 70
     1
  9
$MEASUREMENT
 70
     0
  0
ENDSEC
  0
SECTION
  2
CLASSES
  0
CLASS
  1
ACDBDICTIONARYWDFLT
  2
AcDbDictionaryWithDefault
  3
AutoCAD 2000
 90
        0
280
     0
281
     0
  0
CLASS
  1
ACDBPLACEHOLDER
  2
AcDbPlaceHolder
  3
AutoCAD 2000
 90
        0
280
     0
281
     0
  0
CLASS
  1
LAYOUT
  2
AcDbLayout
  3
AutoCAD 2000
 90
        0
280
     0
281
     0
  0
CLASS
  1
LONG_TRANSACTION
  2
AcDbLongTransaction
  3
AutoCAD 2000
 90
        0
280
     0
281
     0
  0
CLASS
  1
LWPOLYLINE
  2
AcDbPolyline
  3
AutoCAD 2000
 90
        0
280
     0
281
     1
  0
CLASS
  1
HATCH
  2
AcDbHatch
  3
AutoCAD 2000
 90
        0
280
     0
281
     1
  0
CLASS
  1
XRECORD
  2
AcDbXrecord
  3
AutoCAD 2000
 90
        0
280
     0
281
     0
  0
ENDSEC
  0
SECTION
  2
TABLES
  0
TABLE
  2
VPORT
  5
8
330
0
100
AcDbSymbolTable
 70
     2
  0
VPORT
  5
2CB
330
8
100
AcDbSymbolTableRecord
100
AcDbViewportTableRecord
  2
*ACTIVE
 70
     0
 10
0.0
 20
0.0
 11
1.0
 21
1.0
 12
584.767322819619
 22
-294.8967723466212
 13
0.0
 23
0.0
 14
50.0
 24
50.0
 15
100.0
 25
100.0
 16
0.0
 26
0.0
 36
1.0
 17
0.0
 27
0.0
 37
0.0
 40
3241.108049938221
 41
1.657997399219765
 42
50.0
 43
0.0
 44
0.0
 50
0.0
 51
0.0
 71
     0
 72
  1000
 73
     1
 74
     0
 75
     0
 76
     0
 77
     0
 78
     0
  0
ENDTAB
  0
TABLE
  2
LTYPE
  5
5
330
0
100
AcDbSymbolTable
 70
     2
  0
LTYPE
  5
13
330
5
100
AcDbSymbolTableRecord
100
AcDbLinetypeTableRecord
  2
BYBLOCK
 70
     0
  3

 72
    65
 73
     0
 40
0.0
  0
LTYPE
  5
14
330
5
100
AcDbSymbolTableRecord
100
AcDbLinetypeTableRecord
  2
BYLAYER
 70
     0
  3

 72
    65
 73
     0
 40
0.0
  0
LTYPE
  5
15
330
5
100
AcDbSymbolTableRecord
100
AcDbLinetypeTableRecord
  2
CONTINUOUS
 70
     0
  3
????
 72
    65
 73
     0
 40
0.0
  0
LTYPE
  5
22
330
5
100
AcDbSymbolTableRecord
100
AcDbLinetypeTableRecord
  2
DASHDOT
 70
     0
  3
____ _ ____ _ ____ _ ____ _ ____ _ ____ _ ____
 72
    65
 73
     4
 40
5.5
 49
4.0
 74
     0
 49
-0.6
 74
     0
 49
0.3
 74
     0
 49
-0.6
 74
     0
  0
ENDTAB
  0
TABLE
  2
LAYER
  5
2
330
0
100
AcDbSymbolTable
 70
    12
  0
LAYER
  5
10
330
2
100
AcDbSymbolTableRecord
100
AcDbLayerTableRecord
  2
0
 70
     0
 62
     7
  6
CONTINUOUS
  0
LAYER
  5
23
330
2
100
AcDbSymbolTableRecord
100
AcDbLayerTableRecord
  2
OUTLINE
 70
     0
 62
     3
  6
CONTINUOUS
  0
LAYER
  5
24
330
2
100
AcDbSymbolTableRecord
100
AcDbLayerTableRecord
  2
DETAIL
 70
     0
 62
     5
  6
CONTINUOUS
  0
LAYER
  5
25
330
2
100
AcDbSymbolTableRecord
100
AcDbLayerTableRecord
  2
BASIS
 70
     0
 62
     6
  6
DASHDOT
  0
LAYER
  5
26
330
2
100
AcDbSymbolTableRecord
100
AcDbLayerTableRecord
  2
SIZE
 70
     0
 62
    30
  6
CONTINUOUS
  0
LAYER
  5
27
330
2
100
AcDbSymbolTableRecord
100
AcDbLayerTableRecord
  2
NOTE
 70
     0
 62
     4
  6
CONTINUOUS
  0
LAYER
  5
28
330
2
100
AcDbSymbolTableRecord
100
AcDbLayerTableRecord
  2
ARRANGE
 70
     0
 62
     1
  6
CONTINUOUS
  0
LAYER
  5
29
330
2
100
AcDbSymbolTableRecord
100
AcDbLayerTableRecord
  2
FIX
 70
     0
 62
    11
  6
CONTINUOUS
  0
LAYER
  5
2A
330
2
100
AcDbSymbolTableRecord
100
AcDbLayerTableRecord
  2
SERVICESPACE
 70
     0
 62
     2
  6
DASHDOT
  0
LAYER
  5
2B
330
2
100
AcDbSymbolTableRecord
100
AcDbLayerTableRecord
  2
ETC
 70
     0
 62
    61
  6
CONTINUOUS
  0
LAYER
  5
2C
330
2
100
AcDbSymbolTableRecord
100
AcDbLayerTableRecord
  2
SYMBOLLINE
 70
     0
 62
    15
  6
CONTINUOUS
  0
LAYER
  5
2D
330
2
100
AcDbSymbolTableRecord
100
AcDbLayerTableRecord
  2
DEFPOINTS
 70
     0
 62
     7
  6
CONTINUOUS
  0
ENDTAB
  0
TABLE
  2
STYLE
  5
3
330
0
100
AcDbSymbolTable
 70
     2
  0
STYLE
  5
11
330
3
100
AcDbSymbolTableRecord
100
AcDbTextStyleTableRecord
  2
STANDARD
 70
     0
 40
0.0
 41
0.9
 50
0.0
 71
     0
 42
64.0
  3
SIMPLEX
  4
BIGFONT
  0
STYLE
  5
2E
330
3
100
AcDbSymbolTableRecord
100
AcDbTextStyleTableRecord
  2
STANDARD1
 70
     0
 40
0.0
 41
1.0
 50
0.0
 71
     0
 42
64.0
  3
MONOTXT
  4
BIGFONT
  0
ENDTAB
  0
TABLE
  2
VIEW
  5
6
330
0
100
AcDbSymbolTable
 70
     1
  0
VIEW
  5
2F
330
6
100
AcDbSymbolTableRecord
100
AcDbViewTableRecord
  2
ALL
 70
     0
 40
6056.230032000001
 10
0.0
 20
58.11501599999999
 41
8400.0
 11
0.0
 21
0.0
 31
1.0
 12
0.0
 22
0.0
 32
0.0
 42
50.0
 43
0.0
 44
0.0
 50
0.0
 71
     0
  0
ENDTAB
  0
TABLE
  2
UCS
  5
7
330
0
100
AcDbSymbolTable
 70
     0
  0
ENDTAB
  0
TABLE
  2
APPID
  5
9
330
0
100
AcDbSymbolTable
 70
     1
  0
APPID
  5
12
330
9
100
AcDbSymbolTableRecord
100
AcDbRegAppTableRecord
  2
ACAD
 70
     0
  0
ENDTAB
  0
TABLE
  2
DIMSTYLE
  5
A
330
0
100
AcDbSymbolTable
 70
     1
  0
DIMSTYLE
105
2CA
330
A
100
AcDbSymbolTableRecord
100
AcDbDimStyleTableRecord
  2
STANDARD
 70
     0
  3

  4

  5

  6

  7

 40
1.0
 41
0.18
 42
0.0625
 43
0.38
 44
0.18
 45
0.0
 46
0.0
 47
0.0
 48
0.0
140
0.18
141
0.09
142
0.0
143
25.4
144
1.0
145
0.0
146
1.0
147
0.09
 71
     0
 72
     0
 73
     1
 74
     1
 75
     0
 76
     0
 77
     0
 78
     0
170
     0
171
     2
172
     0
173
     0
174
     0
175
     0
176
     0
177
     0
178
     0
270
     2
271
     4
272
     4
273
     2
274
     2
340
11
275
     0
280
     0
281
     0
282
     0
283
     1
284
     0
285
     0
286
     0
287
     3
288
     0
  0
ENDTAB
  0
TABLE
  2
BLOCK_RECORD
  5
1
330
0
100
AcDbSymbolTable
 70
     2
  0
BLOCK_RECORD
  5
1E
102
{ACAD_XDICTIONARY
360
2EF
102
}
330
1
100
AcDbSymbolTableRecord
100
AcDbBlockTableRecord
  2
*MODEL_SPACE
  0
BLOCK_RECORD
  5
1A
102
{ACAD_XDICTIONARY
360
2ED
102
}
330
1
100
AcDbSymbolTableRecord
100
AcDbBlockTableRecord
  2
*PAPER_SPACE
  0
BLOCK_RECORD
  5
34
330
1
100
AcDbSymbolTableRecord
100
AcDbBlockTableRecord
  2
_ORIGIN
  0
BLOCK_RECORD
  5
39
330
1
100
AcDbSymbolTableRecord
100
AcDbBlockTableRecord
  2
_DOTBLANK
  0
ENDTAB
  0
ENDSEC
  0
SECTION
  2
BLOCKS
  0
BLOCK
  5
1F
330
1E
100
AcDbEntity
  8
0
100
AcDbBlockBegin
  2
*MODEL_SPACE
 70
     0
 10
0.0
 20
0.0
 30
0.0
  3
*MODEL_SPACE
  1

  0
ENDBLK
  5
20
330
1E
100
AcDbEntity
  8
0
100
AcDbBlockEnd
  0
BLOCK
  5
1B
330
1A
100
AcDbEntity
 67
     1
  8
0
100
AcDbBlockBegin
  2
*PAPER_SPACE
 70
     0
 10
0.0
 20
0.0
 30
0.0
  3
*PAPER_SPACE
  1

  0
ENDBLK
  5
1C
330
1A
100
AcDbEntity
 67
     1
  8
0
100
AcDbBlockEnd
  0
BLOCK
  5
35
330
34
100
AcDbEntity
  8
0
100
AcDbBlockBegin
  2
_ORIGIN
 70
     0
 10
0.0
 20
0.0
 30
0.0
  3
_ORIGIN
  1

  0
CIRCLE
  5
36
330
34
100
AcDbEntity
  8
0
  6
CONTINUOUS
 62
     7
100
AcDbCircle
 10
0.0
 20
0.0
 30
0.0
 40
0.5
  0
LINE
  5
37
330
34
100
AcDbEntity
  8
0
  6
CONTINUOUS
 62
     7
100
AcDbLine
 10
-0.5
 20
0.0
 30
0.0
 11
-1.0
 21
0.0
 31
0.0
  0
ENDBLK
  5
38
330
34
100
AcDbEntity
  8
0
100
AcDbBlockEnd
  0
BLOCK
  5
3A
330
39
100
AcDbEntity
  8
0
100
AcDbBlockBegin
  2
_DOTBLANK
 70
     0
 10
0.0
 20
0.0
 30
0.0
  3
_DOTBLANK
  1

  0
CIRCLE
  5
3B
330
39
100
AcDbEntity
  8
0
  6
CONTINUOUS
 62
     7
100
AcDbCircle
 10
0.0
 20
0.0
 30
0.0
 40
0.5
  0
LINE
  5
3C
330
39
100
AcDbEntity
  8
0
  6
CONTINUOUS
 62
     7
100
AcDbLine
 10
-0.5
 20
0.0
 30
0.0
 11
-1.0
 21
0.0
 31
0.0
  0
ENDBLK
  5
3D
330
39
100
AcDbEntity
  8
0
100
AcDbBlockEnd
  0
ENDSEC
  0
SECTION
  2
ENTITIES
  0
TEXT
  5
3E
330
1E
100
AcDbEntity
  8
0
  6
CONTINUOUS
 62
     7
100
AcDbText
 10
12761.29
 20
1934.172
 30
0.0
 40
3.2
  1
 
 50
0.000003
 41
0.5989580000000001
  7
STANDARD1
100
AcDbText
  0
LINE
  5
3F
330
1E
100
AcDbEntity
  8
SIZE
  6
CONTINUOUS
 62
    30
100
AcDbLine
 10
-355.0
 20
605.0
 30
0.0
 11
-849.7089385941873
 21
605.0000000000001
 31
0.0
  0
LINE
  5
40
330
1E
100
AcDbEntity
  8
SIZE
  6
CONTINUOUS
 62
    30
100
AcDbLine
 10
-355.0
 20
-605.0
 30
0.0
 11
-849.7089385941873
 21
-604.9999999999998
 31
0.0
  0
LINE
  5
41
330
1E
100
AcDbEntity
  8
SIZE
  6
CONTINUOUS
 62
    30
100
AcDbLine
 10
-819.7089385941874
 20
595.0000000000001
 30
0.0
 11
-819.7089385941874
 21
-594.9999999999999
 31
0.0
  0
CIRCLE
  5
42
330
1E
100
AcDbEntity
  8
SIZE
  6
CONTINUOUS
 62
    30
100
AcDbCircle
 10
-819.7089385941874
 20
605.0000000000001
 30
0.0
 40
5.0
  0
LINE
  5
43
330
1E
100
AcDbEntity
  8
SIZE
  6
CONTINUOUS
 62
    30
100
AcDbLine
 10
-819.7089385941874
 20
600.0
 30
0.0
 11
-819.7089385941874
 21
595.0000000000001
 31
0.0
  0
CIRCLE
  5
44
330
1E
100
AcDbEntity
  8
SIZE
  6
CONTINUOUS
 62
    30
100
AcDbCircle
 10
-819.7089385941874
 20
-604.9999999999998
 30
0.0
 40
5.0
  0
LINE
  5
45
330
1E
100
AcDbEntity
  8
SIZE
  6
CONTINUOUS
 62
    30
100
AcDbLine
 10
-819.7089385941874
 20
-599.9999999999998
 30
0.0
 11
-819.7089385941874
 21
-594.9999999999997
 31
0.0
  0
TEXT
  5
46
330
1E
100
AcDbEntity
  8
SIZE
  6
CONTINUOUS
 62
    30
100
AcDbText
 10
-839.7089385941873
 20
-90.51428571428576
 30
0.0
 40
64.0
  1
1210
 50
90.0
 41
0.9
 72
     1
 11
-839.7089385941873
 21
-0.0000000000000591
 31
0.0
100
AcDbText
  0
POINT
  5
47
330
1E
100
AcDbEntity
  8
DEFPOINTS
  6
CONTINUOUS
 62
     7
100
AcDbPoint
 10
-335.0
 20
605.0
 30
0.0
  0
POINT
  5
48
330
1E
100
AcDbEntity
  8
DEFPOINTS
  6
CONTINUOUS
 62
     7
100
AcDbPoint
 10
-335.0
 20
-605.0
 30
0.0
  0
POINT
  5
49
330
1E
100
AcDbEntity
  8
DEFPOINTS
  6
CONTINUOUS
 62
     7
100
AcDbPoint
 10
-819.7089385941874
 20
-604.9999999999998
 30
0.0
  0
LINE
  5
4A
330
1E
100
AcDbEntity
  8
SIZE
  6
CONTINUOUS
 62
    30
100
AcDbLine
 10
-337.0
 20
-472.999999999998
 30
0.0
 11
-491.4948162599086
 21
-472.999999999998
 31
0.0
  0
LINE
  5
4B
330
1E
100
AcDbEntity
  8
SIZE
  6
CONTINUOUS
 62
    30
100
AcDbLine
 10
-447.162637
 20
0.0000000000000057
 30
0.0
 11
-491.4948162599085
 21
0.0000000000000182
 31
0.0
  0
LINE
  5
4C
330
1E
100
AcDbEntity
  8
SIZE
  6
CONTINUOUS
 62
    30
100
AcDbLine
 10
-461.4948162599086
 20
-462.999999999998
 30
0.0
 11
-461.4948162599085
 21
-9.999999999999987
 31
0.0
  0
CIRCLE
  5
4D
330
1E
100
AcDbEntity
  8
SIZE
  6
CONTINUOUS
 62
    30
100
AcDbCircle
 10
-461.4948162599086
 20
-472.999999999998
 30
0.0
 40
5.0
  0
LINE
  5
4E
330
1E
100
AcDbEntity
  8
SIZE
  6
CONTINUOUS
 62
    30
100
AcDbLine
 10
-461.4948162599086
 20
-467.9999999999981
 30
0.0
 11
-461.4948162599086
 21
-462.999999999998
 31
0.0
  0
CIRCLE
  5
4F
330
1E
100
AcDbEntity
  8
SIZE
  6
CONTINUOUS
 62
    30
100
AcDbCircle
 10
-461.4948162599085
 20
0.0000000000000097
 30
0.0
 40
5.0
  0
LINE
  5
50
330
1E
100
AcDbEntity
  8
SIZE
  6
CONTINUOUS
 62
    30
100
AcDbLine
 10
-461.4948162599085
 20
-4.99999999999999
 30
0.0
 11
-461.4948162599085
 21
-9.999999999999991
 31
0.0
  0
TEXT
  5
51
330
1E
100
AcDbEntity
  8
SIZE
  6
CONTINUOUS
 62
    30
100
AcDbText
 10
-481.4948162599083
 20
-310.5571428571419
 30
0.0
 40
64.0
  1
473
 50
90.0
 41
0.9
 72
     1
 11
-481.4948162599083
 21
-236.499999999999
 31
0.0
100
AcDbText
  0
POINT
  5
52
330
1E
100
AcDbEntity
  8
DEFPOINTS
  6
CONTINUOUS
 62
     7
100
AcDbPoint
 10
-317.0
 20
-472.999999999998
 30
0.0
  0
POINT
  5
53
330
1E
100
AcDbEntity
  8
DEFPOINTS
  6
CONTINUOUS
 62
     7
100
AcDbPoint
 10
-427.1626369999999
 20
0.0
 30
0.0
  0
POINT
  5
54
330
1E
100
AcDbEntity
  8
DEFPOINTS
  6
CONTINUOUS
 62
     7
100
AcDbPoint
 10
-461.4948162599085
 20
0.0000000000000097
 30
0.0
  0
LINE
  5
55
330
1E
100
AcDbEntity
  8
SIZE
  6
CONTINUOUS
 62
    30
100
AcDbLine
 10
-357.0
 20
183.0000000000017
 30
0.0
 11
-723.7402657674087
 21
183.0000000000019
 31
0.0
  0
LINE
  5
56
330
1E
100
AcDbEntity
  8
SIZE
  6
CONTINUOUS
 62
    30
100
AcDbLine
 10
-357.0
 20
-251.999999999998
 30
0.0
 11
-723.7402657674087
 21
-251.999999999998
 31
0.0
  0
LINE
  5
57
330
1E
100
AcDbEntity
  8
SIZE
  6
CONTINUOUS
 62
    30
100
AcDbLine
 10
-693.7402657674088
 20
173.0000000000019
 30
0.0
 11
-693.7402657674088
 21
-241.9999999999979
 31
0.0
  0
CIRCLE
  5
58
330
1E
100
AcDbEntity
  8
SIZE
  6
CONTINUOUS
 62
    30
100
AcDbCircle
 10
-693.7402657674088
 20
183.0000000000019
 30
0.0
 40
5.0
  0
LINE
  5
59
330
1E
100
AcDbEntity
  8
SIZE
  6
CONTINUOUS
 62
    30
100
AcDbLine
 10
-693.7402657674088
 20
178.0000000000019
 30
0.0
 11
-693.7402657674088
 21
173.0000000000019
 31
0.0
  0
CIRCLE
  5
5A
330
1E
100
AcDbEntity
  8
SIZE
  6
CONTINUOUS
 62
    30
100
AcDbCircle
 10
-693.7402657674088
 20
-251.999999999998
 30
0.0
 40
5.0
  0
LINE
  5
5B
330
1E
100
AcDbEntity
  8
SIZE
  6
CONTINUOUS
 62
    30
100
AcDbLine
 10
-693.7402657674088
 20
-246.999999999998
 30
0.0
 11
-693.7402657674088
 21
-241.9999999999979
 31
0.0
  0
TEXT
  5
5C
330
1E
100
AcDbEntity
  8
SIZE
  6
CONTINUOUS
 62
    30
100
AcDbText
 10
-713.7402657674084
 20
-108.557142857141
 30
0.0
 40
64.0
  1
435
 50
90.0
 41
0.9
 72
     1
 11
-713.7402657674084
 21
-34.49999999999819
 31
0.0
100
AcDbText
  0
POINT
  5
5D
330
1E
100
AcDbEntity
  8
DEFPOINTS
  6
CONTINUOUS
 62
     7
100
AcDbPoint
 10
-337.0
 20
183.0000000000017
 30
0.0
  0
POINT
  5
5E
330
1E
100
AcDbEntity
  8
DEFPOINTS
  6
CONTINUOUS
 62
     7
100
AcDbPoint
 10
-337.0
 20
-251.999999999998
 30
0.0
  0
POINT
  5
5F
330
1E
100
AcDbEntity
  8
DEFPOINTS
  6
CONTINUOUS
 62
     7
100
AcDbPoint
 10
-693.7402657674088
 20
-251.999999999998
 30
0.0
  0
LINE
  5
60
330
1E
100
AcDbEntity
  8
NOTE
  6
CONTINUOUS
 62
     4
100
AcDbLine
 10
-179.9999999999986
 20
-472.999999999998
 30
0.0
 11
-636.9285920255727
 21
-872.2902802975532
 31
0.0
  0
LINE
  5
61
330
1E
100
AcDbEntity
  8
NOTE
  6
CONTINUOUS
 62
     4
100
AcDbLine
 10
-68.00000000000058
 20
-587.0
 30
0.0
 11
-513.6917621004864
 21
-1229.614073874842
 31
0.0
  0
LINE
  5
62
330
1E
100
AcDbEntity
  8
NOTE
  6
CONTINUOUS
 62
     4
100
AcDbLine
 10
-9.999999999999282
 20
-587.0
 30
0.0
 11
-446.766724643929
 21
-1396.857144518291
 31
0.0
  0
LINE
  5
63
330
1E
100
AcDbEntity
  8
SIZE
  6
CONTINUOUS
 62
    30
100
AcDbLine
 10
-355.0
 20
-605.0
 30
0.0
 11
-849.7089385941873
 21
-604.9999999999998
 31
0.0
  0
LINE
  5
64
330
1E
100
AcDbEntity
  8
SIZE
  6
CONTINUOUS
 62
    30
100
AcDbLine
 10
-355.0
 20
-625.0
 30
0.0
 11
-849.7089385941873
 21
-624.9999999999999
 31
0.0
  0
LINE
  5
65
330
1E
100
AcDbEntity
  8
SIZE
  6
CONTINUOUS
 62
    30
100
AcDbLine
 10
-819.7089385941874
 20
-594.9999999999999
 30
0.0
 11
-819.7089385941874
 21
-584.9999999999997
 31
0.0
  0
LINE
  5
66
330
1E
100
AcDbEntity
  8
SIZE
  6
CONTINUOUS
 62
    30
100
AcDbLine
 10
-819.7089385941874
 20
-634.9999999999997
 30
0.0
 11
-819.7089385941874
 21
-778.2571428571428
 31
0.0
  0
LINE
  5
67
330
1E
100
AcDbEntity
  8
SIZE
  6
CONTINUOUS
 62
    30
100
AcDbLine
 10
-819.7089385941874
 20
-604.9999999999998
 30
0.0
 11
-819.7089385941874
 21
-624.9999999999999
 31
0.0
  0
CIRCLE
  5
68
330
1E
100
AcDbEntity
  8
SIZE
  6
CONTINUOUS
 62
    30
100
AcDbCircle
 10
-819.7089385941874
 20
-604.9999999999998
 30
0.0
 40
5.0
  0
LINE
  5
69
330
1E
100
AcDbEntity
  8
SIZE
  6
CONTINUOUS
 62
    30
100
AcDbLine
 10
-819.7089385941874
 20
-599.9999999999998
 30
0.0
 11
-819.7089385941874
 21
-594.9999999999997
 31
0.0
  0
CIRCLE
  5
6A
330
1E
100
AcDbEntity
  8
SIZE
  6
CONTINUOUS
 62
    30
100
AcDbCircle
 10
-819.7089385941874
 20
-624.9999999999999
 30
0.0
 40
5.0
  0
LINE
  5
6B
330
1E
100
AcDbEntity
  8
SIZE
  6
CONTINUOUS
 62
    30
100
AcDbLine
 10
-819.7089385941874
 20
-629.9999999999998
 30
0.0
 11
-819.7089385941874
 21
-634.9999999999998
 31
0.0
  0
TEXT
  5
6C
330
1E
100
AcDbEntity
  8
SIZE
  6
CONTINUOUS
 62
    30
100
AcDbText
 10
-839.7089385941873
 20
-758.2571428571428
 30
0.0
 40
64.0
  1
20
 50
90.0
 41
0.9
 72
     1
 11
-839.7089385941873
 21
-711.6285714285715
 31
0.0
100
AcDbText
  0
POINT
  5
6D
330
1E
100
AcDbEntity
  8
DEFPOINTS
  6
CONTINUOUS
 62
     7
100
AcDbPoint
 10
-335.0
 20
-605.0
 30
0.0
  0
POINT
  5
6E
330
1E
100
AcDbEntity
  8
DEFPOINTS
  6
CONTINUOUS
 62
     7
100
AcDbPoint
 10
-335.0
 20
-625.0
 30
0.0
  0
POINT
  5
6F
330
1E
100
AcDbEntity
  8
DEFPOINTS
  6
CONTINUOUS
 62
     7
100
AcDbPoint
 10
-819.7089385941874
 20
-624.9999999999999
 30
0.0
  0
LINE
  5
70
330
1E
100
AcDbEntity
  8
NOTE
  6
CONTINUOUS
 62
     4
100
AcDbLine
 10
-189.9999999999992
 20
-502.9999999999963
 30
0.0
 11
-648.1692181886764
 21
-1067.208698932849
 31
0.0
  0
LINE
  5
71
330
1E
100
AcDbEntity
  8
SIZE
  6
CONTINUOUS
 62
    30
100
AcDbLine
 10
-230.0
 20
-502.999999999998
 30
0.0
 11
-603.980043
 21
-502.999999999998
 31
0.0
  0
LINE
  5
72
330
1E
100
AcDbEntity
  8
SIZE
  6
CONTINUOUS
 62
    30
100
AcDbLine
 10
-337.0
 20
-472.999999999998
 30
0.0
 11
-603.980043
 21
-472.999999999998
 31
0.0
  0
LINE
  5
73
330
1E
100
AcDbEntity
  8
SIZE
  6
CONTINUOUS
 62
    30
100
AcDbLine
 10
-573.980043
 20
-512.999999999998
 30
0.0
 11
-573.980043
 21
-522.999999999998
 31
0.0
  0
LINE
  5
74
330
1E
100
AcDbEntity
  8
SIZE
  6
CONTINUOUS
 62
    30
100
AcDbLine
 10
-573.980043
 20
-462.999999999998
 30
0.0
 11
-573.980043
 21
-319.7428571428552
 31
0.0
  0
LINE
  5
75
330
1E
100
AcDbEntity
  8
SIZE
  6
CONTINUOUS
 62
    30
100
AcDbLine
 10
-573.980043
 20
-502.999999999998
 30
0.0
 11
-573.980043
 21
-472.999999999998
 31
0.0
  0
CIRCLE
  5
76
330
1E
100
AcDbEntity
  8
SIZE
  6
CONTINUOUS
 62
    30
100
AcDbCircle
 10
-573.980043
 20
-502.999999999998
 30
0.0
 40
5.0
  0
LINE
  5
77
330
1E
100
AcDbEntity
  8
SIZE
  6
CONTINUOUS
 62
    30
100
AcDbLine
 10
-573.980043
 20
-507.999999999998
 30
0.0
 11
-573.980043
 21
-512.9999999999982
 31
0.0
  0
CIRCLE
  5
78
330
1E
100
AcDbEntity
  8
SIZE
  6
CONTINUOUS
 62
    30
100
AcDbCircle
 10
-573.980043
 20
-472.999999999998
 30
0.0
 40
5.0
  0
LINE
  5
79
330
1E
100
AcDbEntity
  8
SIZE
  6
CONTINUOUS
 62
    30
100
AcDbLine
 10
-573.980043
 20
-467.9999999999981
 30
0.0
 11
-573.980043
 21
-462.999999999998
 31
0.0
  0
TEXT
  5
7A
330
1E
100
AcDbEntity
  8
SIZE
  6
CONTINUOUS
 62
    30
100
AcDbText
 10
-593.9800429999998
 20
-432.999999999998
 30
0.0
 40
64.0
  1
30
 50
90.0
 41
0.9
 72
     1
 11
-593.9800429999998
 21
-386.3714285714266
 31
0.0
100
AcDbText
  0
POINT
  5
7B
330
1E
100
AcDbEntity
  8
DEFPOINTS
  6
CONTINUOUS
 62
     7
100
AcDbPoint
 10
-210.0
 20
-502.999999999998
 30
0.0
  0
POINT
  5
7C
330
1E
100
AcDbEntity
  8
DEFPOINTS
  6
CONTINUOUS
 62
     7
100
AcDbPoint
 10
-317.0
 20
-472.999999999998
 30
0.0
  0
POINT
  5
7D
330
1E
100
AcDbEntity
  8
DEFPOINTS
  6
CONTINUOUS
 62
     7
100
AcDbPoint
 10
-573.980043
 20
-472.999999999998
 30
0.0
  0
LINE
  5
7E
330
1E
100
AcDbEntity
  8
SIZE
  6
CONTINUOUS
 62
    30
100
AcDbLine
 10
-337.0
 20
-472.999999999998
 30
0.0
 11
-723.7402657674084
 21
-472.9999999999979
 31
0.0
  0
LINE
  5
7F
330
1E
100
AcDbEntity
  8
SIZE
  6
CONTINUOUS
 62
    30
100
AcDbLine
 10
-357.0
 20
-251.999999999998
 30
0.0
 11
-723.7402657674084
 21
-251.999999999998
 31
0.0
  0
LINE
  5
80
330
1E
100
AcDbEntity
  8
SIZE
  6
CONTINUOUS
 62
    30
100
AcDbLine
 10
-693.7402657674084
 20
-462.999999999998
 30
0.0
 11
-693.7402657674084
 21
-261.999999999998
 31
0.0
  0
CIRCLE
  5
81
330
1E
100
AcDbEntity
  8
SIZE
  6
CONTINUOUS
 62
    30
100
AcDbCircle
 10
-693.7402657674084
 20
-472.9999999999979
 30
0.0
 40
5.0
  0
LINE
  5
82
330
1E
100
AcDbEntity
  8
SIZE
  6
CONTINUOUS
 62
    30
100
AcDbLine
 10
-693.7402657674084
 20
-467.999999999998
 30
0.0
 11
-693.7402657674084
 21
-462.999999999998
 31
0.0
  0
CIRCLE
  5
83
330
1E
100
AcDbEntity
  8
SIZE
  6
CONTINUOUS
 62
    30
100
AcDbCircle
 10
-693.7402657674084
 20
-251.999999999998
 30
0.0
 40
5.0
  0
LINE
  5
84
330
1E
100
AcDbEntity
  8
SIZE
  6
CONTINUOUS
 62
    30
100
AcDbLine
 10
-693.7402657674084
 20
-256.999999999998
 30
0.0
 11
-693.7402657674084
 21
-261.999999999998
 31
0.0
  0
TEXT
  5
85
330
1E
100
AcDbEntity
  8
SIZE
  6
CONTINUOUS
 62
    30
100
AcDbText
 10
-713.7402657674084
 20
-429.3362515108214
 30
0.0
 40
64.0
  1
221
 50
90.0
 41
0.9
 72
     1
 11
-713.7402657674084
 21
-367.6219657965357
 31
0.0
100
AcDbText
  0
POINT
  5
86
330
1E
100
AcDbEntity
  8
DEFPOINTS
  6
CONTINUOUS
 62
     7
100
AcDbPoint
 10
-317.0
 20
-472.999999999998
 30
0.0
  0
POINT
  5
87
330
1E
100
AcDbEntity
  8
DEFPOINTS
  6
CONTINUOUS
 62
     7
100
AcDbPoint
 10
-337.0
 20
-251.999999999998
 30
0.0
  0
POINT
  5
88
330
1E
100
AcDbEntity
  8
DEFPOINTS
  6
CONTINUOUS
 62
     7
100
AcDbPoint
 10
-693.7402657674084
 20
-251.999999999998
 30
0.0
  0
LINE
  5
89
330
1E
100
AcDbEntity
  8
SIZE
  6
CONTINUOUS
 62
    30
100
AcDbLine
 10
-357.0
 20
-251.999999999998
 30
0.0
 11
-603.980043
 21
-251.999999999998
 31
0.0
  0
LINE
  5
8A
330
1E
100
AcDbEntity
  8
SIZE
  6
CONTINUOUS
 62
    30
100
AcDbLine
 10
-357.0
 20
-34.49999999999818
 30
0.0
 11
-603.980043
 21
-34.4999999999981
 31
0.0
  0
LINE
  5
8B
330
1E
100
AcDbEntity
  8
SIZE
  6
CONTINUOUS
 62
    30
100
AcDbLine
 10
-573.980043
 20
-241.999999999998
 30
0.0
 11
-573.980043
 21
-44.4999999999981
 31
0.0
  0
CIRCLE
  5
8C
330
1E
100
AcDbEntity
  8
SIZE
  6
CONTINUOUS
 62
    30
100
AcDbCircle
 10
-573.980043
 20
-251.999999999998
 30
0.0
 40
5.0
  0
LINE
  5
8D
330
1E
100
AcDbEntity
  8
SIZE
  6
CONTINUOUS
 62
    30
100
AcDbLine
 10
-573.980043
 20
-246.9999999999981
 30
0.0
 11
-573.980043
 21
-241.999999999998
 31
0.0
  0
CIRCLE
  5
8E
330
1E
100
AcDbEntity
  8
SIZE
  6
CONTINUOUS
 62
    30
100
AcDbCircle
 10
-573.980043
 20
-34.4999999999981
 30
0.0
 40
5.0
  0
LINE
  5
8F
330
1E
100
AcDbEntity
  8
SIZE
  6
CONTINUOUS
 62
    30
100
AcDbLine
 10
-573.980043
 20
-39.4999999999981
 30
0.0
 11
-573.980043
 21
-44.4999999999981
 31
0.0
  0
TEXT
  5
90
330
1E
100
AcDbEntity
  8
SIZE
  6
CONTINUOUS
 62
    30
100
AcDbText
 10
-593.980043
 20
-252.9642857142838
 30
0.0
 40
64.0
  1
217.5
 50
90.0
 41
0.9
 72
     1
 11
-593.980043
 21
-143.2499999999981
 31
0.0
100
AcDbText
  0
POINT
  5
91
330
1E
100
AcDbEntity
  8
DEFPOINTS
  6
CONTINUOUS
 62
     7
100
AcDbPoint
 10
-337.0
 20
-251.999999999998
 30
0.0
  0
POINT
  5
92
330
1E
100
AcDbEntity
  8
DEFPOINTS
  6
CONTINUOUS
 62
     7
100
AcDbPoint
 10
-337.0
 20
-34.49999999999818
 30
0.0
  0
POINT
  5
93
330
1E
100
AcDbEntity
  8
DEFPOINTS
  6
CONTINUOUS
 62
     7
100
AcDbPoint
 10
-573.980043
 20
-34.4999999999981
 30
0.0
  0
LINE
  5
94
330
1E
100
AcDbEntity
  8
NOTE
  6
CONTINUOUS
 62
     4
100
AcDbLine
 10
-316.9999999999992
 20
-252.0
 30
0.0
 11
-960.608327015351
 21
-584.7371745113776
 31
0.0
  0
TEXT
  5
95
330
1E
100
AcDbEntity
  8
NOTE
  6
CONTINUOUS
 62
     4
100
AcDbText
 10
-384.5393073073159
 20
949.3030283287117
 30
0.0
 40
64.0
  1
(Lifting bolt pitch)
 41
0.9
100
AcDbText
  0
LINE
  5
96
330
1E
100
AcDbEntity
  8
SIZE
  6
CONTINUOUS
 62
    30
100
AcDbLine
 10
-355.0
 20
605.0
 30
0.0
 11
-849.7089385941873
 21
605.0000000000001
 31
0.0
  0
LINE
  5
97
330
1E
100
AcDbEntity
  8
SIZE
  6
CONTINUOUS
 62
    30
100
AcDbLine
 10
-359.0
 20
625.0
 30
0.0
 11
-849.7089385941873
 21
625.0
 31
0.0
  0
LINE
  5
98
330
1E
100
AcDbEntity
  8
SIZE
  6
CONTINUOUS
 62
    30
100
AcDbLine
 10
-819.7089385941874
 20
595.0000000000001
 30
0.0
 11
-819.7089385941874
 21
585.0000000000001
 31
0.0
  0
LINE
  5
99
330
1E
100
AcDbEntity
  8
SIZE
  6
CONTINUOUS
 62
    30
100
AcDbLine
 10
-819.7089385941874
 20
635.0000000000001
 30
0.0
 11
-819.7089385941868
 21
778.2571428571429
 31
0.0
  0
LINE
  5
9A
330
1E
100
AcDbEntity
  8
SIZE
  6
CONTINUOUS
 62
    30
100
AcDbLine
 10
-819.7089385941874
 20
605.0000000000001
 30
0.0
 11
-819.7089385941874
 21
625.0
 31
0.0
  0
CIRCLE
  5
9B
330
1E
100
AcDbEntity
  8
SIZE
  6
CONTINUOUS
 62
    30
100
AcDbCircle
 10
-819.7089385941874
 20
605.0000000000001
 30
0.0
 40
5.0
  0
LINE
  5
9C
330
1E
100
AcDbEntity
  8
SIZE
  6
CONTINUOUS
 62
    30
100
AcDbLine
 10
-819.7089385941874
 20
600.0
 30
0.0
 11
-819.7089385941874
 21
595.0000000000001
 31
0.0
  0
CIRCLE
  5
9D
330
1E
100
AcDbEntity
  8
SIZE
  6
CONTINUOUS
 62
    30
100
AcDbCircle
 10
-819.7089385941874
 20
625.0
 30
0.0
 40
5.0
  0
LINE
  5
9E
330
1E
100
AcDbEntity
  8
SIZE
  6
CONTINUOUS
 62
    30
100
AcDbLine
 10
-819.7089385941874
 20
630.0
 30
0.0
 11
-819.7089385941874
 21
635.0
 31
0.0
  0
TEXT
  5
9F
330
1E
100
AcDbEntity
  8
SIZE
  6
CONTINUOUS
 62
    30
100
AcDbText
 10
-839.7089385941873
 20
664.9999999999998
 30
0.0
 40
64.0
  1
20
 50
90.0
 41
0.9
 72
     1
 11
-839.7089385941873
 21
711.6285714285712
 31
0.0
100
AcDbText
  0
POINT
  5
A0
330
1E
100
AcDbEntity
  8
DEFPOINTS
  6
CONTINUOUS
 62
     7
100
AcDbPoint
 10
-335.0
 20
605.0
 30
0.0
  0
POINT
  5
A1
330
1E
100
AcDbEntity
  8
DEFPOINTS
  6
CONTINUOUS
 62
     7
100
AcDbPoint
 10
-339.0
 20
625.0
 30
0.0
  0
POINT
  5
A2
330
1E
100
AcDbEntity
  8
DEFPOINTS
  6
CONTINUOUS
 62
     7
100
AcDbPoint
 10
-819.7089385941874
 20
625.0
 30
0.0
  0
LINE
  5
A3
330
1E
100
AcDbEntity
  8
SIZE
  6
CONTINUOUS
 62
    30
100
AcDbLine
 10
-287.0
 20
537.0000000000016
 30
0.0
 11
-287.0
 21
829.9070319999989
 31
0.0
  0
LINE
  5
A4
330
1E
100
AcDbEntity
  8
SIZE
  6
CONTINUOUS
 62
    30
100
AcDbLine
 10
-335.0
 20
625.0
 30
0.0
 11
-335.0
 21
829.9070319999989
 31
0.0
  0
LINE
  5
A5
330
1E
100
AcDbEntity
  8
SIZE
  6
CONTINUOUS
 62
    30
100
AcDbLine
 10
-277.0
 20
799.9070319999989
 30
0.0
 11
-267.0
 21
799.9070319999989
 31
0.0
  0
LINE
  5
A6
330
1E
100
AcDbEntity
  8
SIZE
  6
CONTINUOUS
 62
    30
100
AcDbLine
 10
-345.0
 20
799.9070319999989
 30
0.0
 11
-488.2571428571428
 21
799.9070319999989
 31
0.0
  0
LINE
  5
A7
330
1E
100
AcDbEntity
  8
SIZE
  6
CONTINUOUS
 62
    30
100
AcDbLine
 10
-287.0
 20
799.9070319999989
 30
0.0
 11
-335.0
 21
799.9070319999989
 31
0.0
  0
CIRCLE
  5
A8
330
1E
100
AcDbEntity
  8
SIZE
  6
CONTINUOUS
 62
    30
100
AcDbCircle
 10
-287.0
 20
799.9070319999989
 30
0.0
 40
5.0
  0
LINE
  5
A9
330
1E
100
AcDbEntity
  8
SIZE
  6
CONTINUOUS
 62
    30
100
AcDbLine
 10
-282.0
 20
799.9070319999989
 30
0.0
 11
-277.0
 21
799.9070319999989
 31
0.0
  0
CIRCLE
  5
AA
330
1E
100
AcDbEntity
  8
SIZE
  6
CONTINUOUS
 62
    30
100
AcDbCircle
 10
-335.0
 20
799.9070319999989
 30
0.0
 40
5.0
  0
LINE
  5
AB
330
1E
100
AcDbEntity
  8
SIZE
  6
CONTINUOUS
 62
    30
100
AcDbLine
 10
-340.0
 20
799.9070319999989
 30
0.0
 11
-345.0
 21
799.9070319999989
 31
0.0
  0
TEXT
  5
AC
330
1E
100
AcDbEntity
  8
SIZE
  6
CONTINUOUS
 62
    30
100
AcDbText
 10
-468.2571428571428
 20
819.9070319999989
 30
0.0
 40
64.0
  1
48
 41
0.9
 72
     1
 11
-421.6285714285714
 21
819.9070319999989
 31
0.0
100
AcDbText
  0
POINT
  5
AD
330
1E
100
AcDbEntity
  8
DEFPOINTS
  6
CONTINUOUS
 62
     7
100
AcDbPoint
 10
-287.0
 20
517.0000000000016
 30
0.0
  0
POINT
  5
AE
330
1E
100
AcDbEntity
  8
DEFPOINTS
  6
CONTINUOUS
 62
     7
100
AcDbPoint
 10
-335.0
 20
605.0
 30
0.0
  0
POINT
  5
AF
330
1E
100
AcDbEntity
  8
DEFPOINTS
  6
CONTINUOUS
 62
     7
100
AcDbPoint
 10
-335.0
 20
799.9070319999989
 30
0.0
  0
LINE
  5
B0
330
1E
100
AcDbEntity
  8
SIZE
  6
CONTINUOUS
 62
    30
100
AcDbLine
 10
-355.0
 20
629.0
 30
0.0
 11
-354.9999999999998
 21
1119.633812723136
 31
0.0
  0
LINE
  5
B1
330
1E
100
AcDbEntity
  8
SIZE
  6
CONTINUOUS
 62
    30
100
AcDbLine
 10
-335.0
 20
625.0
 30
0.0
 11
-334.9999999999998
 21
1119.633812723136
 31
0.0
  0
LINE
  5
B2
330
1E
100
AcDbEntity
  8
SIZE
  6
CONTINUOUS
 62
    30
100
AcDbLine
 10
-324.9999999999999
 20
1089.633812723137
 30
0.0
 11
-314.9999999999999
 21
1089.633812723137
 31
0.0
  0
LINE
  5
B3
330
1E
100
AcDbEntity
  8
SIZE
  6
CONTINUOUS
 62
    30
100
AcDbLine
 10
-364.9999999999999
 20
1089.633812723137
 30
0.0
 11
-508.2571428571426
 21
1089.633812723137
 31
0.0
  0
LINE
  5
B4
330
1E
100
AcDbEntity
  8
SIZE
  6
CONTINUOUS
 62
    30
100
AcDbLine
 10
-334.9999999999998
 20
1089.633812723137
 30
0.0
 11
-354.9999999999998
 21
1089.633812723137
 31
0.0
  0
CIRCLE
  5
B5
330
1E
100
AcDbEntity
  8
SIZE
  6
CONTINUOUS
 62
    30
100
AcDbCircle
 10
-334.9999999999998
 20
1089.633812723137
 30
0.0
 40
5.0
  0
LINE
  5
B6
330
1E
100
AcDbEntity
  8
SIZE
  6
CONTINUOUS
 62
    30
100
AcDbLine
 10
-329.9999999999998
 20
1089.633812723137
 30
0.0
 11
-324.9999999999999
 21
1089.633812723137
 31
0.0
  0
CIRCLE
  5
B7
330
1E
100
AcDbEntity
  8
SIZE
  6
CONTINUOUS
 62
    30
100
AcDbCircle
 10
-354.9999999999998
 20
1089.633812723137
 30
0.0
 40
5.0
  0
LINE
  5
B8
330
1E
100
AcDbEntity
  8
SIZE
  6
CONTINUOUS
 62
    30
100
AcDbLine
 10
-359.9999999999998
 20
1089.633812723137
 30
0.0
 11
-364.9999999999999
 21
1089.633812723137
 31
0.0
  0
TEXT
  5
B9
330
1E
100
AcDbEntity
  8
SIZE
  6
CONTINUOUS
 62
    30
100
AcDbText
 10
-488.2571428571426
 20
1109.633812723137
 30
0.0
 40
64.0
  1
20
 41
0.9
 72
     1
 11
-441.6285714285712
 21
1109.633812723137
 31
0.0
100
AcDbText
  0
POINT
  5
BA
330
1E
100
AcDbEntity
  8
DEFPOINTS
  6
CONTINUOUS
 62
     7
100
AcDbPoint
 10
-355.0
 20
609.0
 30
0.0
  0
POINT
  5
BB
330
1E
100
AcDbEntity
  8
DEFPOINTS
  6
CONTINUOUS
 62
     7
100
AcDbPoint
 10
-335.0
 20
605.0
 30
0.0
  0
POINT
  5
BC
330
1E
100
AcDbEntity
  8
DEFPOINTS
  6
CONTINUOUS
 62
     7
100
AcDbPoint
 10
-334.9999999999998
 20
1089.633812723137
 30
0.0
  0
LINE
  5
BD
330
1E
100
AcDbEntity
  8
BASIS
  6
DASHDOT
 62
     6
100
AcDbLine
 10
-427.1626369999999
 20
0.0
 30
0.0
 11
416.9682179999999
 21
0.0
 31
0.0
  0
TEXT
  5
BE
330
1E
100
AcDbEntity
  8
NOTE
  6
CONTINUOUS
 62
     4
100
AcDbText
 10
-938.3582261843804
 20
-293.6727071894018
 30
0.0
 40
64.0
  1
(Ceiling opening)
 50
90.0
 41
0.9
100
AcDbText
  0
TEXT
  5
BF
330
1E
100
AcDbEntity
  8
NOTE
  6
CONTINUOUS
 62
     4
100
AcDbText
 10
-1323.206330339953
 20
-564.3018097637085
 30
0.0
 40
64.0
  1
6-%%c2.9
 41
0.9
100
AcDbText
  0
LINE
  5
C0
330
1E
100
AcDbEntity
  8
NOTE
  6
CONTINUOUS
 62
     4
100
AcDbLine
 10
-1366.868522015351
 20
-584.7371745113776
 30
0.0
 11
-960.6083270153513
 21
-584.7371745113776
 31
0.0
  0
LINE
  5
C1
330
1E
100
AcDbEntity
  8
NOTE
  6
CONTINUOUS
 62
     4
100
AcDbLine
 10
-636.9285920255727
 20
-872.2902802975532
 30
0.0
 11
-1141.980546025572
 21
-872.2902802975532
 31
0.0
  0
LINE
  5
C2
330
1E
100
AcDbEntity
  8
NOTE
  6
CONTINUOUS
 62
     4
100
AcDbLine
 10
-827.1833311886764
 20
-1067.208698932849
 30
0.0
 11
-648.1692181886764
 21
-1067.208698932849
 31
0.0
  0
TEXT
  5
C3
330
1E
100
AcDbEntity
  8
NOTE
  6
CONTINUOUS
 62
     4
100
AcDbText
 10
-1112.451218862933
 20
-845.6215847690033
 30
0.0
 40
64.0
  1
D1 VP-25
 41
0.9
100
AcDbText
  0
TEXT
  5
C4
330
1E
100
AcDbEntity
  8
NOTE
  6
CONTINUOUS
 62
     4
100
AcDbText
 10
-622.3362071004864
 20
-1209.513555874844
 30
0.0
 40
64.0
  1
CL
 41
0.9
100
AcDbText
  0
LINE
  5
C5
330
1E
100
AcDbEntity
  8
NOTE
  6
CONTINUOUS
 62
     4
100
AcDbLine
 10
-513.6917621004864
 20
-1229.614073874842
 30
0.0
 11
-649.3958161004865
 21
-1229.614073874842
 31
0.0
  0
TEXT
  5
C6
330
1E
100
AcDbEntity
  8
NOTE
  6
CONTINUOUS
 62
     4
100
AcDbText
 10
-557.0717936439291
 20
-1378.202243518289
 30
0.0
 40
64.0
  1
EL
 41
0.9
100
AcDbText
  0
LINE
  5
C7
330
1E
100
AcDbEntity
  8
NOTE
  6
CONTINUOUS
 62
     4
100
AcDbLine
 10
-446.766724643929
 20
-1396.857144518291
 30
0.0
 11
-584.9908826439291
 21
-1396.857144518291
 31
0.0
  0
TEXT
  5
C8
330
1E
100
AcDbEntity
  8
NOTE
  6
CONTINUOUS
 62
     4
100
AcDbText
 10
-779.6427775658046
 20
-1042.922287464725
 30
0.0
 40
64.0
  1
D2
 41
0.9
100
AcDbText
  0
LINE
  5
C9
330
1E
100
AcDbEntity
  8
SIZE
  6
CONTINUOUS
 62
    30
100
AcDbLine
 10
337.0
 20
473.0
 30
0.0
 11
1030.250082444913
 21
472.9999999999996
 31
0.0
  0
LINE
  5
CA
330
1E
100
AcDbEntity
  8
SIZE
  6
CONTINUOUS
 62
    30
100
AcDbLine
 10
337.0000000000002
 20
-472.999999999998
 30
0.0
 11
1030.250082444913
 21
-472.9999999999984
 31
0.0
  0
LINE
  5
CB
330
1E
100
AcDbEntity
  8
SIZE
  6
CONTINUOUS
 62
    30
100
AcDbLine
 10
1000.250082444914
 20
462.9999999999998
 30
0.0
 11
1000.250082444914
 21
-462.9999999999983
 31
0.0
  0
CIRCLE
  5
CC
330
1E
100
AcDbEntity
  8
SIZE
  6
CONTINUOUS
 62
    30
100
AcDbCircle
 10
1000.250082444914
 20
472.9999999999996
 30
0.0
 40
5.0
  0
LINE
  5
CD
330
1E
100
AcDbEntity
  8
SIZE
  6
CONTINUOUS
 62
    30
100
AcDbLine
 10
1000.250082444914
 20
467.9999999999997
 30
0.0
 11
1000.250082444914
 21
462.9999999999997
 31
0.0
  0
CIRCLE
  5
CE
330
1E
100
AcDbEntity
  8
SIZE
  6
CONTINUOUS
 62
    30
100
AcDbCircle
 10
1000.250082444914
 20
-472.9999999999984
 30
0.0
 40
5.0
  0
LINE
  5
CF
330
1E
100
AcDbEntity
  8
SIZE
  6
CONTINUOUS
 62
    30
100
AcDbLine
 10
1000.250082444914
 20
-467.9999999999984
 30
0.0
 11
1000.250082444914
 21
-462.9999999999983
 31
0.0
  0
TEXT
  5
D0
330
1E
100
AcDbEntity
  8
SIZE
  6
CONTINUOUS
 62
    30
100
AcDbText
 10
980.2500824449142
 20
-72.68571428571345
 30
0.0
 40
64.0
  1
946
 50
90.0
 41
0.9
 72
     1
 11
980.2500824449142
 21
0.0000000000008526
 31
0.0
100
AcDbText
  0
POINT
  5
D1
330
1E
100
AcDbEntity
  8
DEFPOINTS
  6
CONTINUOUS
 62
     7
100
AcDbPoint
 10
317.0
 20
473.0
 30
0.0
  0
POINT
  5
D2
330
1E
100
AcDbEntity
  8
DEFPOINTS
  6
CONTINUOUS
 62
     7
100
AcDbPoint
 10
317.0000000000003
 20
-472.999999999998
 30
0.0
  0
POINT
  5
D3
330
1E
100
AcDbEntity
  8
DEFPOINTS
  6
CONTINUOUS
 62
     7
100
AcDbPoint
 10
1000.250082444914
 20
-472.9999999999984
 30
0.0
  0
LINE
  5
D4
330
1E
100
AcDbEntity
  8
SIZE
  6
CONTINUOUS
 62
    30
100
AcDbLine
 10
358.9999999999998
 20
625.0
 30
0.0
 11
1161.009694905444
 21
624.9999999999999
 31
0.0
  0
LINE
  5
D5
330
1E
100
AcDbEntity
  8
SIZE
  6
CONTINUOUS
 62
    30
100
AcDbLine
 10
358.9999999999998
 20
-625.0
 30
0.0
 11
1161.009694905444
 21
-625.0
 31
0.0
  0
LINE
  5
D6
330
1E
100
AcDbEntity
  8
SIZE
  6
CONTINUOUS
 62
    30
100
AcDbLine
 10
1131.009694905444
 20
614.9999999999997
 30
0.0
 11
1131.009694905442
 21
-615.0000000000001
 31
0.0
  0
CIRCLE
  5
D7
330
1E
100
AcDbEntity
  8
SIZE
  6
CONTINUOUS
 62
    30
100
AcDbCircle
 10
1131.009694905444
 20
624.9999999999999
 30
0.0
 40
5.0
  0
LINE
  5
D8
330
1E
100
AcDbEntity
  8
SIZE
  6
CONTINUOUS
 62
    30
100
AcDbLine
 10
1131.009694905444
 20
619.9999999999999
 30
0.0
 11
1131.009694905444
 21
614.9999999999998
 31
0.0
  0
CIRCLE
  5
D9
330
1E
100
AcDbEntity
  8
SIZE
  6
CONTINUOUS
 62
    30
100
AcDbCircle
 10
1131.009694905442
 20
-625.0
 30
0.0
 40
5.0
  0
LINE
  5
DA
330
1E
100
AcDbEntity
  8
SIZE
  6
CONTINUOUS
 62
    30
100
AcDbLine
 10
1131.009694905442
 20
-620.0
 30
0.0
 11
1131.009694905442
 21
-615.0
 31
0.0
  0
TEXT
  5
DB
330
1E
100
AcDbEntity
  8
SIZE
  6
CONTINUOUS
 62
    30
100
AcDbText
 10
1111.009694905444
 20
-95.99999999999996
 30
0.0
 40
64.0
  1
1250
 50
90.0
 41
0.9
 72
     1
 11
1111.009694905444
 21
0.0000000000000488
 31
0.0
100
AcDbText
  0
POINT
  5
DC
330
1E
100
AcDbEntity
  8
DEFPOINTS
  6
CONTINUOUS
 62
     7
100
AcDbPoint
 10
338.9999999999998
 20
625.0
 30
0.0
  0
POINT
  5
DD
330
1E
100
AcDbEntity
  8
DEFPOINTS
  6
CONTINUOUS
 62
     7
100
AcDbPoint
 10
338.9999999999998
 20
-625.0
 30
0.0
  0
POINT
  5
DE
330
1E
100
AcDbEntity
  8
DEFPOINTS
  6
CONTINUOUS
 62
     7
100
AcDbPoint
 10
1131.009694905442
 20
-625.0
 30
0.0
  0
LINE
  5
DF
330
1E
100
AcDbEntity
  8
SIZE
  6
CONTINUOUS
 62
    30
100
AcDbLine
 10
327.0
 20
497.0
 30
0.0
 11
1279.882061852944
 21
496.9999999999997
 31
0.0
  0
LINE
  5
E0
330
1E
100
AcDbEntity
  8
SIZE
  6
CONTINUOUS
 62
    30
100
AcDbLine
 10
326.9999999999999
 20
-496.9999999999981
 30
0.0
 11
1279.882061852944
 21
-496.9999999999983
 31
0.0
  0
LINE
  5
E1
330
1E
100
AcDbEntity
  8
SIZE
  6
CONTINUOUS
 62
    30
100
AcDbLine
 10
1249.882061852944
 20
486.9999999999997
 30
0.0
 11
1249.882061852944
 21
-486.9999999999985
 31
0.0
  0
CIRCLE
  5
E2
330
1E
100
AcDbEntity
  8
SIZE
  6
CONTINUOUS
 62
    30
100
AcDbCircle
 10
1249.882061852944
 20
496.9999999999997
 30
0.0
 40
5.0
  0
LINE
  5
E3
330
1E
100
AcDbEntity
  8
SIZE
  6
CONTINUOUS
 62
    30
100
AcDbLine
 10
1249.882061852944
 20
491.9999999999997
 30
0.0
 11
1249.882061852944
 21
486.9999999999997
 31
0.0
  0
CIRCLE
  5
E4
330
1E
100
AcDbEntity
  8
SIZE
  6
CONTINUOUS
 62
    30
100
AcDbCircle
 10
1249.882061852944
 20
-496.9999999999983
 30
0.0
 40
5.0
  0
LINE
  5
E5
330
1E
100
AcDbEntity
  8
SIZE
  6
CONTINUOUS
 62
    30
100
AcDbLine
 10
1249.882061852944
 20
-491.9999999999983
 30
0.0
 11
1249.882061852944
 21
-486.9999999999984
 31
0.0
  0
TEXT
  5
E6
330
1E
100
AcDbEntity
  8
SIZE
  6
CONTINUOUS
 62
    30
100
AcDbText
 10
1229.882061852944
 20
-75.42857142857058
 30
0.0
 40
64.0
  1
994
 50
90.0
 41
0.9
 72
     1
 11
1229.882061852944
 21
0.0000000000008373
 31
0.0
100
AcDbText
  0
POINT
  5
E7
330
1E
100
AcDbEntity
  8
DEFPOINTS
  6
CONTINUOUS
 62
     7
100
AcDbPoint
 10
307.0
 20
497.0
 30
0.0
  0
POINT
  5
E8
330
1E
100
AcDbEntity
  8
DEFPOINTS
  6
CONTINUOUS
 62
     7
100
AcDbPoint
 10
306.9999999999998
 20
-496.9999999999981
 30
0.0
  0
POINT
  5
E9
330
1E
100
AcDbEntity
  8
DEFPOINTS
  6
CONTINUOUS
 62
     7
100
AcDbPoint
 10
1249.882061852944
 20
-496.9999999999983
 30
0.0
  0
LINE
  5
EA
330
1E
100
AcDbEntity
  8
SERVICESPACE
  6
DASHDOT
 62
     2
100
AcDbLine
 10
-334.9999999999998
 20
-605.0
 30
0.0
 11
334.9999999999998
 21
605.0
 31
0.0
  0
LINE
  5
EB
330
1E
100
AcDbEntity
  8
SERVICESPACE
  6
DASHDOT
 62
     2
100
AcDbLine
 10
-335.0
 20
605.0
 30
0.0
 11
334.9999999999998
 21
-605.0
 31
0.0
  0
LINE
  5
EC
330
1E
100
AcDbEntity
  8
DETAIL
  6
CONTINUOUS
 62
     5
100
AcDbLine
 10
-355.0
 20
-609.0
 30
0.0
 11
-354.9999999999998
 21
609.0
 31
0.0
  0
LINE
  5
ED
330
1E
100
AcDbEntity
  8
SERVICESPACE
  6
DASHDOT
 62
     2
100
AcDbLine
 10
-335.0
 20
605.0
 30
0.0
 11
-334.9999999999998
 21
-605.0
 31
0.0
  0
LINE
  5
EE
330
1E
100
AcDbEntity
  8
DETAIL
  6
CONTINUOUS
 62
     5
100
AcDbLine
 10
-317.0
 20
-593.0
 30
0.0
 11
-317.0
 21
593.0
 31
0.0
  0
LINE
  5
EF
330
1E
100
AcDbEntity
  8
DETAIL
  6
CONTINUOUS
 62
     5
100
AcDbLine
 10
317.0
 20
-593.0
 30
0.0
 11
317.0
 21
593.0
 31
0.0
  0
LINE
  5
F0
330
1E
100
AcDbEntity
  8
SERVICESPACE
  6
DASHDOT
 62
     2
100
AcDbLine
 10
334.9999999999997
 20
-605.0
 30
0.0
 11
334.9999999999998
 21
605.0
 31
0.0
  0
LINE
  5
F1
330
1E
100
AcDbEntity
  8
DETAIL
  6
CONTINUOUS
 62
     5
100
AcDbLine
 10
354.9999999999998
 20
-609.0
 30
0.0
 11
354.9999999999998
 21
609.0
 31
0.0
  0
LINE
  5
F2
330
1E
100
AcDbEntity
  8
SIZE
  6
CONTINUOUS
 62
    30
100
AcDbLine
 10
357.0
 20
-251.999999999998
 30
0.0
 11
884.1529553338929
 21
-251.9999999999983
 31
0.0
  0
LINE
  5
F3
330
1E
100
AcDbEntity
  8
SIZE
  6
CONTINUOUS
 62
    30
100
AcDbLine
 10
357.0
 20
183.0000000000017
 30
0.0
 11
884.1529553338931
 21
183.0000000000016
 31
0.0
  0
LINE
  5
F4
330
1E
100
AcDbEntity
  8
SIZE
  6
CONTINUOUS
 62
    30
100
AcDbLine
 10
854.1529553338929
 20
-241.9999999999983
 30
0.0
 11
854.1529553338929
 21
173.0000000000015
 31
0.0
  0
CIRCLE
  5
F5
330
1E
100
AcDbEntity
  8
SIZE
  6
CONTINUOUS
 62
    30
100
AcDbCircle
 10
854.1529553338929
 20
-251.9999999999983
 30
0.0
 40
5.0
  0
LINE
  5
F6
330
1E
100
AcDbEntity
  8
SIZE
  6
CONTINUOUS
 62
    30
100
AcDbLine
 10
854.1529553338929
 20
-246.9999999999982
 30
0.0
 11
854.1529553338929
 21
-241.9999999999983
 31
0.0
  0
CIRCLE
  5
F7
330
1E
100
AcDbEntity
  8
SIZE
  6
CONTINUOUS
 62
    30
100
AcDbCircle
 10
854.1529553338929
 20
183.0000000000016
 30
0.0
 40
5.0
  0
LINE
  5
F8
330
1E
100
AcDbEntity
  8
SIZE
  6
CONTINUOUS
 62
    30
100
AcDbLine
 10
854.1529553338929
 20
178.0000000000016
 30
0.0
 11
854.1529553338929
 21
173.0000000000015
 31
0.0
  0
TEXT
  5
F9
330
1E
100
AcDbEntity
  8
SIZE
  6
CONTINUOUS
 62
    30
100
AcDbText
 10
834.1529553338931
 20
-108.557142857141
 30
0.0
 40
64.0
  1
435
 50
90.0
 41
0.9
 72
     1
 11
834.1529553338931
 21
-34.49999999999817
 31
0.0
100
AcDbText
  0
POINT
  5
FA
330
1E
100
AcDbEntity
  8
DEFPOINTS
  6
CONTINUOUS
 62
     7
100
AcDbPoint
 10
337.0
 20
-251.999999999998
 30
0.0
  0
POINT
  5
FB
330
1E
100
AcDbEntity
  8
DEFPOINTS
  6
CONTINUOUS
 62
     7
100
AcDbPoint
 10
337.0
 20
183.0000000000017
 30
0.0
  0
POINT
  5
FC
330
1E
100
AcDbEntity
  8
DEFPOINTS
  6
CONTINUOUS
 62
     7
100
AcDbPoint
 10
854.1529553338929
 20
183.0000000000016
 30
0.0
  0
TEXT
  5
FD
330
1E
100
AcDbEntity
  8
NOTE
  6
CONTINUOUS
 62
     4
100
AcDbText
 10
1374.693553540011
 20
-389.5693998528822
 30
0.0
 40
64.0
  1
(Lifting bolt pitch)
 50
90.0
 41
0.9
100
AcDbText
  0
LINE
  5
FE
330
1E
100
AcDbEntity
  8
BASIS
  6
DASHDOT
 62
     6
100
AcDbLine
 10
0.0
 20
-661.740033
 30
0.0
 11
0.0
 21
679.9562249999999
 31
0.0
  0
POINT
  5
FF
330
1E
100
AcDbEntity
  8
ARRANGE
  6
CONTINUOUS
 62
     1
100
AcDbPoint
 10
0.0
 20
0.0
 30
0.0
  0
LINE
  5
100
330
1E
100
AcDbEntity
  8
NOTE
  6
CONTINUOUS
 62
     4
100
AcDbLine
 10
101.0000000000008
 20
-540.0
 30
0.0
 11
786.2147057727176
 21
-1649.231530641814
 31
0.0
  0
LINE
  5
101
330
1E
100
AcDbEntity
  8
NOTE
  6
CONTINUOUS
 62
     4
100
AcDbLine
 10
170.999999999999
 20
-545.9999999999982
 30
0.0
 11
630.4887218822803
 21
-1114.848429410415
 31
0.0
  0
LINE
  5
102
330
1E
100
AcDbEntity
  8
SIZE
  6
CONTINUOUS
 62
    30
100
AcDbLine
 10
354.9999999999998
 20
-605.0
 30
0.0
 11
1279.882061852944
 21
-605.0000000000001
 31
0.0
  0
LINE
  5
103
330
1E
100
AcDbEntity
  8
SIZE
  6
CONTINUOUS
 62
    30
100
AcDbLine
 10
334.9999999999997
 20
-496.9999999999981
 30
0.0
 11
1279.882061852944
 21
-496.9999999999983
 31
0.0
  0
LINE
  5
104
330
1E
100
AcDbEntity
  8
SIZE
  6
CONTINUOUS
 62
    30
100
AcDbLine
 10
1249.882061852944
 20
-506.9999999999985
 30
0.0
 11
1249.882061852944
 21
-595.0000000000001
 31
0.0
  0
LINE
  5
105
330
1E
100
AcDbEntity
  8
SIZE
  6
CONTINUOUS
 62
    30
100
AcDbLine
 10
1249.882061852944
 20
-605.0000000000001
 30
0.0
 11
1249.882061852944
 21
-792.1428571428577
 31
0.0
  0
CIRCLE
  5
106
330
1E
100
AcDbEntity
  8
SIZE
  6
CONTINUOUS
 62
    30
100
AcDbCircle
 10
1249.882061852944
 20
-496.9999999999983
 30
0.0
 40
5.0
  0
LINE
  5
107
330
1E
100
AcDbEntity
  8
SIZE
  6
CONTINUOUS
 62
    30
100
AcDbLine
 10
1249.882061852944
 20
-501.9999999999984
 30
0.0
 11
1249.882061852944
 21
-506.9999999999984
 31
0.0
  0
CIRCLE
  5
108
330
1E
100
AcDbEntity
  8
SIZE
  6
CONTINUOUS
 62
    30
100
AcDbCircle
 10
1249.882061852944
 20
-605.0000000000001
 30
0.0
 40
5.0
  0
LINE
  5
109
330
1E
100
AcDbEntity
  8
SIZE
  6
CONTINUOUS
 62
    30
100
AcDbLine
 10
1249.882061852944
 20
-600.0
 30
0.0
 11
1249.882061852944
 21
-595.0000000000001
 31
0.0
  0
TEXT
  5
10A
330
1E
100
AcDbEntity
  8
SIZE
  6
CONTINUOUS
 62
    30
100
AcDbText
 10
1229.882061852944
 20
-772.142857142858
 30
0.0
 40
64.0
  1
108
 50
90.0
 41
0.9
 72
     1
 11
1229.882061852944
 21
-703.5714285714294
 31
0.0
100
AcDbText
  0
POINT
  5
10B
330
1E
100
AcDbEntity
  8
DEFPOINTS
  6
CONTINUOUS
 62
     7
100
AcDbPoint
 10
334.9999999999998
 20
-605.0
 30
0.0
  0
POINT
  5
10C
330
1E
100
AcDbEntity
  8
DEFPOINTS
  6
CONTINUOUS
 62
     7
100
AcDbPoint
 10
314.9999999999999
 20
-496.9999999999981
 30
0.0
  0
POINT
  5
10D
330
1E
100
AcDbEntity
  8
DEFPOINTS
  6
CONTINUOUS
 62
     7
100
AcDbPoint
 10
1249.882061852944
 20
-496.9999999999983
 30
0.0
  0
LINE
  5
10E
330
1E
100
AcDbEntity
  8
SIZE
  6
CONTINUOUS
 62
    30
100
AcDbLine
 10
337.0
 20
-472.999999999998
 30
0.0
 11
647.0487812071967
 21
-472.9999999999981
 31
0.0
  0
LINE
  5
10F
330
1E
100
AcDbEntity
  8
SIZE
  6
CONTINUOUS
 62
    30
100
AcDbLine
 10
211.0
 20
-545.9999999999982
 30
0.0
 11
647.0487812071967
 21
-545.9999999999983
 31
0.0
  0
LINE
  5
110
330
1E
100
AcDbEntity
  8
SIZE
  6
CONTINUOUS
 62
    30
100
AcDbLine
 10
617.0487812071967
 20
-535.9999999999983
 30
0.0
 11
617.0487812071967
 21
-482.9999999999982
 31
0.0
  0
LINE
  5
111
330
1E
100
AcDbEntity
  8
SIZE
  6
CONTINUOUS
 62
    30
100
AcDbLine
 10
617.0487812071967
 20
-472.9999999999981
 30
0.0
 11
617.0487812071967
 21
-329.7428571428552
 31
0.0
  0
CIRCLE
  5
112
330
1E
100
AcDbEntity
  8
SIZE
  6
CONTINUOUS
 62
    30
100
AcDbCircle
 10
617.0487812071967
 20
-545.9999999999983
 30
0.0
 40
5.0
  0
LINE
  5
113
330
1E
100
AcDbEntity
  8
SIZE
  6
CONTINUOUS
 62
    30
100
AcDbLine
 10
617.0487812071967
 20
-540.9999999999983
 30
0.0
 11
617.0487812071967
 21
-535.9999999999983
 31
0.0
  0
CIRCLE
  5
114
330
1E
100
AcDbEntity
  8
SIZE
  6
CONTINUOUS
 62
    30
100
AcDbCircle
 10
617.0487812071967
 20
-472.9999999999981
 30
0.0
 40
5.0
  0
LINE
  5
115
330
1E
100
AcDbEntity
  8
SIZE
  6
CONTINUOUS
 62
    30
100
AcDbLine
 10
617.0487812071967
 20
-477.9999999999981
 30
0.0
 11
617.0487812071967
 21
-482.9999999999982
 31
0.0
  0
TEXT
  5
116
330
1E
100
AcDbEntity
  8
SIZE
  6
CONTINUOUS
 62
    30
100
AcDbText
 10
597.048781207197
 20
-442.9999999999981
 30
0.0
 40
64.0
  1
73
 50
90.0
 41
0.9
 72
     1
 11
597.048781207197
 21
-396.3714285714266
 31
0.0
100
AcDbText
  0
POINT
  5
117
330
1E
100
AcDbEntity
  8
DEFPOINTS
  6
CONTINUOUS
 62
     7
100
AcDbPoint
 10
317.0
 20
-472.999999999998
 30
0.0
  0
POINT
  5
118
330
1E
100
AcDbEntity
  8
DEFPOINTS
  6
CONTINUOUS
 62
     7
100
AcDbPoint
 10
191.0
 20
-545.9999999999982
 30
0.0
  0
POINT
  5
119
330
1E
100
AcDbEntity
  8
DEFPOINTS
  6
CONTINUOUS
 62
     7
100
AcDbPoint
 10
617.0487812071967
 20
-545.9999999999983
 30
0.0
  0
LINE
  5
11A
330
1E
100
AcDbEntity
  8
SIZE
  6
CONTINUOUS
 62
    30
100
AcDbLine
 10
337.0
 20
-472.999999999998
 30
0.0
 11
522.8106386124506
 21
-472.9999999999981
 31
0.0
  0
LINE
  5
11B
330
1E
100
AcDbEntity
  8
SIZE
  6
CONTINUOUS
 62
    30
100
AcDbLine
 10
141.0
 20
-539.999999999998
 30
0.0
 11
522.8106386124506
 21
-539.9999999999983
 31
0.0
  0
LINE
  5
11C
330
1E
100
AcDbEntity
  8
SIZE
  6
CONTINUOUS
 62
    30
100
AcDbLine
 10
492.8106386124508
 20
-529.9999999999982
 30
0.0
 11
492.8106386124508
 21
-482.9999999999982
 31
0.0
  0
LINE
  5
11D
330
1E
100
AcDbEntity
  8
SIZE
  6
CONTINUOUS
 62
    30
100
AcDbLine
 10
492.8106386124508
 20
-472.9999999999981
 30
0.0
 11
492.8106386124508
 21
-329.7428571428554
 31
0.0
  0
CIRCLE
  5
11E
330
1E
100
AcDbEntity
  8
SIZE
  6
CONTINUOUS
 62
    30
100
AcDbCircle
 10
492.8106386124508
 20
-539.9999999999983
 30
0.0
 40
5.0
  0
LINE
  5
11F
330
1E
100
AcDbEntity
  8
SIZE
  6
CONTINUOUS
 62
    30
100
AcDbLine
 10
492.8106386124508
 20
-534.9999999999982
 30
0.0
 11
492.8106386124508
 21
-529.9999999999982
 31
0.0
  0
CIRCLE
  5
120
330
1E
100
AcDbEntity
  8
SIZE
  6
CONTINUOUS
 62
    30
100
AcDbCircle
 10
492.8106386124508
 20
-472.9999999999981
 30
0.0
 40
5.0
  0
LINE
  5
121
330
1E
100
AcDbEntity
  8
SIZE
  6
CONTINUOUS
 62
    30
100
AcDbLine
 10
492.8106386124508
 20
-477.9999999999981
 30
0.0
 11
492.8106386124508
 21
-482.9999999999982
 31
0.0
  0
TEXT
  5
122
330
1E
100
AcDbEntity
  8
SIZE
  6
CONTINUOUS
 62
    30
100
AcDbText
 10
472.8106386124508
 20
-442.9999999999979
 30
0.0
 40
64.0
  1
67
 50
90.0
 41
0.9
 72
     1
 11
472.8106386124508
 21
-396.3714285714265
 31
0.0
100
AcDbText
  0
POINT
  5
123
330
1E
100
AcDbEntity
  8
DEFPOINTS
  6
CONTINUOUS
 62
     7
100
AcDbPoint
 10
317.0
 20
-472.999999999998
 30
0.0
  0
POINT
  5
124
330
1E
100
AcDbEntity
  8
DEFPOINTS
  6
CONTINUOUS
 62
     7
100
AcDbPoint
 10
121.0
 20
-539.999999999998
 30
0.0
  0
POINT
  5
125
330
1E
100
AcDbEntity
  8
DEFPOINTS
  6
CONTINUOUS
 62
     7
100
AcDbPoint
 10
492.8106386124508
 20
-539.9999999999983
 30
0.0
  0
LINE
  5
126
330
1E
100
AcDbEntity
  8
NOTE
  6
CONTINUOUS
 62
     4
100
AcDbLine
 10
316.999999999999
 20
-251.9999999999963
 30
0.0
 11
675.5596052555247
 21
-858.4647232857621
 31
0.0
  0
LINE
  5
127
330
1E
100
AcDbEntity
  8
SIZE
  6
CONTINUOUS
 62
    30
100
AcDbLine
 10
337.0
 20
-472.999999999998
 30
0.0
 11
884.1529553338931
 21
-472.9999999999982
 31
0.0
  0
LINE
  5
128
330
1E
100
AcDbEntity
  8
SIZE
  6
CONTINUOUS
 62
    30
100
AcDbLine
 10
357.0
 20
-251.999999999998
 30
0.0
 11
884.1529553338931
 21
-251.9999999999983
 31
0.0
  0
LINE
  5
129
330
1E
100
AcDbEntity
  8
SIZE
  6
CONTINUOUS
 62
    30
100
AcDbLine
 10
854.1529553338929
 20
-462.9999999999983
 30
0.0
 11
854.1529553338929
 21
-261.9999999999981
 31
0.0
  0
CIRCLE
  5
12A
330
1E
100
AcDbEntity
  8
SIZE
  6
CONTINUOUS
 62
    30
100
AcDbCircle
 10
854.1529553338929
 20
-472.9999999999982
 30
0.0
 40
5.0
  0
LINE
  5
12B
330
1E
100
AcDbEntity
  8
SIZE
  6
CONTINUOUS
 62
    30
100
AcDbLine
 10
854.1529553338929
 20
-467.9999999999982
 30
0.0
 11
854.1529553338929
 21
-462.9999999999983
 31
0.0
  0
CIRCLE
  5
12C
330
1E
100
AcDbEntity
  8
SIZE
  6
CONTINUOUS
 62
    30
100
AcDbCircle
 10
854.152955333893
 20
-251.9999999999983
 30
0.0
 40
5.0
  0
LINE
  5
12D
330
1E
100
AcDbEntity
  8
SIZE
  6
CONTINUOUS
 62
    30
100
AcDbLine
 10
854.152955333893
 20
-256.9999999999982
 30
0.0
 11
854.152955333893
 21
-261.9999999999982
 31
0.0
  0
TEXT
  5
12E
330
1E
100
AcDbEntity
  8
SIZE
  6
CONTINUOUS
 62
    30
100
AcDbText
 10
834.1529553338931
 20
-427.4913862879706
 30
0.0
 40
64.0
  1
221
 50
90.0
 41
0.9
 72
     1
 11
834.1529553338931
 21
-365.7771005736848
 31
0.0
100
AcDbText
  0
POINT
  5
12F
330
1E
100
AcDbEntity
  8
DEFPOINTS
  6
CONTINUOUS
 62
     7
100
AcDbPoint
 10
317.0
 20
-472.999999999998
 30
0.0
  0
POINT
  5
130
330
1E
100
AcDbEntity
  8
DEFPOINTS
  6
CONTINUOUS
 62
     7
100
AcDbPoint
 10
337.0
 20
-251.999999999998
 30
0.0
  0
POINT
  5
131
330
1E
100
AcDbEntity
  8
DEFPOINTS
  6
CONTINUOUS
 62
     7
100
AcDbPoint
 10
854.152955333893
 20
-251.9999999999983
 30
0.0
  0
LINE
  5
132
330
1E
100
AcDbEntity
  8
SIZE
  6
CONTINUOUS
 62
    30
100
AcDbLine
 10
357.0
 20
-251.999999999998
 30
0.0
 11
743.979506972284
 21
-251.9999999999983
 31
0.0
  0
LINE
  5
133
330
1E
100
AcDbEntity
  8
SIZE
  6
CONTINUOUS
 62
    30
100
AcDbLine
 10
357.0
 20
-34.49999999999818
 30
0.0
 11
743.979506972284
 21
-34.49999999999828
 31
0.0
  0
LINE
  5
134
330
1E
100
AcDbEntity
  8
SIZE
  6
CONTINUOUS
 62
    30
100
AcDbLine
 10
713.9795069722841
 20
-241.9999999999983
 30
0.0
 11
713.9795069722841
 21
-44.49999999999827
 31
0.0
  0
CIRCLE
  5
135
330
1E
100
AcDbEntity
  8
SIZE
  6
CONTINUOUS
 62
    30
100
AcDbCircle
 10
713.9795069722841
 20
-251.9999999999983
 30
0.0
 40
5.0
  0
LINE
  5
136
330
1E
100
AcDbEntity
  8
SIZE
  6
CONTINUOUS
 62
    30
100
AcDbLine
 10
713.9795069722841
 20
-246.9999999999982
 30
0.0
 11
713.9795069722841
 21
-241.9999999999983
 31
0.0
  0
CIRCLE
  5
137
330
1E
100
AcDbEntity
  8
SIZE
  6
CONTINUOUS
 62
    30
100
AcDbCircle
 10
713.9795069722841
 20
-34.49999999999828
 30
0.0
 40
5.0
  0
LINE
  5
138
330
1E
100
AcDbEntity
  8
SIZE
  6
CONTINUOUS
 62
    30
100
AcDbLine
 10
713.9795069722841
 20
-39.49999999999828
 30
0.0
 11
713.9795069722841
 21
-44.49999999999827
 31
0.0
  0
TEXT
  5
139
330
1E
100
AcDbEntity
  8
SIZE
  6
CONTINUOUS
 62
    30
100
AcDbText
 10
693.979506972284
 20
-252.9642857142837
 30
0.0
 40
64.0
  1
217.5
 50
90.0
 41
0.9
 72
     1
 11
693.979506972284
 21
-143.2499999999981
 31
0.0
100
AcDbText
  0
POINT
  5
13A
330
1E
100
AcDbEntity
  8
DEFPOINTS
  6
CONTINUOUS
 62
     7
100
AcDbPoint
 10
337.0
 20
-251.999999999998
 30
0.0
  0
POINT
  5
13B
330
1E
100
AcDbEntity
  8
DEFPOINTS
  6
CONTINUOUS
 62
     7
100
AcDbPoint
 10
337.0
 20
-34.49999999999818
 30
0.0
  0
POINT
  5
13C
330
1E
100
AcDbEntity
  8
DEFPOINTS
  6
CONTINUOUS
 62
     7
100
AcDbPoint
 10
713.9795069722841
 20
-34.49999999999828
 30
0.0
  0
LINE
  5
13D
330
1E
100
AcDbEntity
  8
SIZE
  6
CONTINUOUS
 62
    30
100
AcDbLine
 10
171.0
 20
-585.999999999998
 30
0.0
 11
170.9999999999998
 21
-805.6690692363609
 31
0.0
  0
LINE
  5
13E
330
1E
100
AcDbEntity
  8
SIZE
  6
CONTINUOUS
 62
    30
100
AcDbLine
 10
101.0
 20
-579.9999999999981
 30
0.0
 11
100.9999999999999
 21
-805.6690692363609
 31
0.0
  0
LINE
  5
13F
330
1E
100
AcDbEntity
  8
SIZE
  6
CONTINUOUS
 62
    30
100
AcDbLine
 10
181.0
 20
-775.6690692363606
 30
0.0
 11
191.0
 21
-775.6690692363606
 31
0.0
  0
LINE
  5
140
330
1E
100
AcDbEntity
  8
SIZE
  6
CONTINUOUS
 62
    30
100
AcDbLine
 10
90.99999999999999
 20
-775.6690692363606
 30
0.0
 11
80.99999999999999
 21
-775.6690692363606
 31
0.0
  0
LINE
  5
141
330
1E
100
AcDbEntity
  8
SIZE
  6
CONTINUOUS
 62
    30
100
AcDbLine
 10
171.0
 20
-775.6690692363606
 30
0.0
 11
100.9999999999999
 21
-775.6690692363606
 31
0.0
  0
CIRCLE
  5
142
330
1E
100
AcDbEntity
  8
SIZE
  6
CONTINUOUS
 62
    30
100
AcDbCircle
 10
171.0
 20
-775.6690692363606
 30
0.0
 40
5.0
  0
LINE
  5
143
330
1E
100
AcDbEntity
  8
SIZE
  6
CONTINUOUS
 62
    30
100
AcDbLine
 10
176.0
 20
-775.6690692363606
 30
0.0
 11
181.0
 21
-775.6690692363606
 31
0.0
  0
CIRCLE
  5
144
330
1E
100
AcDbEntity
  8
SIZE
  6
CONTINUOUS
 62
    30
100
AcDbCircle
 10
100.9999999999999
 20
-775.6690692363606
 30
0.0
 40
5.0
  0
LINE
  5
145
330
1E
100
AcDbEntity
  8
SIZE
  6
CONTINUOUS
 62
    30
100
AcDbLine
 10
95.9999999999999
 20
-775.6690692363606
 30
0.0
 11
90.9999999999999
 21
-775.6690692363606
 31
0.0
  0
TEXT
  5
146
330
1E
100
AcDbEntity
  8
SIZE
  6
CONTINUOUS
 62
    30
100
AcDbText
 10
89.37142857142857
 20
-755.6690692363608
 30
0.0
 40
64.0
  1
70
 41
0.9
 72
     1
 11
136.0
 21
-755.6690692363608
 31
0.0
100
AcDbText
  0
POINT
  5
147
330
1E
100
AcDbEntity
  8
DEFPOINTS
  6
CONTINUOUS
 62
     7
100
AcDbPoint
 10
171.0
 20
-565.999999999998
 30
0.0
  0
POINT
  5
148
330
1E
100
AcDbEntity
  8
DEFPOINTS
  6
CONTINUOUS
 62
     7
100
AcDbPoint
 10
101.0
 20
-559.999999999998
 30
0.0
  0
POINT
  5
149
330
1E
100
AcDbEntity
  8
DEFPOINTS
  6
CONTINUOUS
 62
     7
100
AcDbPoint
 10
100.9999999999999
 20
-775.6690692363606
 30
0.0
  0
LINE
  5
14A
330
1E
100
AcDbEntity
  8
SIZE
  6
CONTINUOUS
 62
    30
100
AcDbLine
 10
317.0
 20
-613.0
 30
0.0
 11
317.0
 21
-805.6690692363609
 31
0.0
  0
LINE
  5
14B
330
1E
100
AcDbEntity
  8
SIZE
  6
CONTINUOUS
 62
    30
100
AcDbLine
 10
171.0
 20
-585.999999999998
 30
0.0
 11
170.9999999999998
 21
-805.6690692363609
 31
0.0
  0
LINE
  5
14C
330
1E
100
AcDbEntity
  8
SIZE
  6
CONTINUOUS
 62
    30
100
AcDbLine
 10
327.0
 20
-775.6690692363606
 30
0.0
 11
337.0
 21
-775.6690692363606
 31
0.0
  0
LINE
  5
14D
330
1E
100
AcDbEntity
  8
SIZE
  6
CONTINUOUS
 62
    30
100
AcDbLine
 10
161.0
 20
-775.6690692363606
 30
0.0
 11
151.0
 21
-775.6690692363606
 31
0.0
  0
LINE
  5
14E
330
1E
100
AcDbEntity
  8
SIZE
  6
CONTINUOUS
 62
    30
100
AcDbLine
 10
317.0
 20
-775.6690692363606
 30
0.0
 11
171.0
 21
-775.6690692363606
 31
0.0
  0
CIRCLE
  5
14F
330
1E
100
AcDbEntity
  8
SIZE
  6
CONTINUOUS
 62
    30
100
AcDbCircle
 10
317.0
 20
-775.6690692363606
 30
0.0
 40
5.0
  0
LINE
  5
150
330
1E
100
AcDbEntity
  8
SIZE
  6
CONTINUOUS
 62
    30
100
AcDbLine
 10
322.0
 20
-775.6690692363606
 30
0.0
 11
327.0
 21
-775.6690692363606
 31
0.0
  0
CIRCLE
  5
151
330
1E
100
AcDbEntity
  8
SIZE
  6
CONTINUOUS
 62
    30
100
AcDbCircle
 10
171.0
 20
-775.6690692363606
 30
0.0
 40
5.0
  0
LINE
  5
152
330
1E
100
AcDbEntity
  8
SIZE
  6
CONTINUOUS
 62
    30
100
AcDbLine
 10
166.0
 20
-775.6690692363606
 30
0.0
 11
161.0
 21
-775.6690692363606
 31
0.0
  0
TEXT
  5
153
330
1E
100
AcDbEntity
  8
SIZE
  6
CONTINUOUS
 62
    30
100
AcDbText
 10
176.8
 20
-755.6690692363608
 30
0.0
 40
64.0
  1
146
 41
0.9
 72
     1
 11
244.0
 21
-755.6690692363608
 31
0.0
100
AcDbText
  0
POINT
  5
154
330
1E
100
AcDbEntity
  8
DEFPOINTS
  6
CONTINUOUS
 62
     7
100
AcDbPoint
 10
317.0
 20
-593.0
 30
0.0
  0
POINT
  5
155
330
1E
100
AcDbEntity
  8
DEFPOINTS
  6
CONTINUOUS
 62
     7
100
AcDbPoint
 10
171.0
 20
-565.999999999998
 30
0.0
  0
POINT
  5
156
330
1E
100
AcDbEntity
  8
DEFPOINTS
  6
CONTINUOUS
 62
     7
100
AcDbPoint
 10
171.0
 20
-775.6690692363606
 30
0.0
  0
LINE
  5
157
330
1E
100
AcDbEntity
  8
SIZE
  6
CONTINUOUS
 62
    30
100
AcDbLine
 10
-355.0
 20
-629.0
 30
0.0
 11
-355.0
 21
-1514.577999999999
 31
0.0
  0
LINE
  5
158
330
1E
100
AcDbEntity
  8
SIZE
  6
CONTINUOUS
 62
    30
100
AcDbLine
 10
354.9999999999998
 20
-629.0
 30
0.0
 11
354.9999999999997
 21
-1514.577999999999
 31
0.0
  0
LINE
  5
159
330
1E
100
AcDbEntity
  8
SIZE
  6
CONTINUOUS
 62
    30
100
AcDbLine
 10
-345.0
 20
-1484.577999999999
 30
0.0
 11
344.9999999999997
 21
-1484.577999999999
 31
0.0
  0
CIRCLE
  5
15A
330
1E
100
AcDbEntity
  8
SIZE
  6
CONTINUOUS
 62
    30
100
AcDbCircle
 10
-355.0
 20
-1484.577999999999
 30
0.0
 40
5.0
  0
LINE
  5
15B
330
1E
100
AcDbEntity
  8
SIZE
  6
CONTINUOUS
 62
    30
100
AcDbLine
 10
-350.0
 20
-1484.577999999999
 30
0.0
 11
-345.0
 21
-1484.577999999999
 31
0.0
  0
CIRCLE
  5
15C
330
1E
100
AcDbEntity
  8
SIZE
  6
CONTINUOUS
 62
    30
100
AcDbCircle
 10
354.9999999999997
 20
-1484.577999999999
 30
0.0
 40
5.0
  0
LINE
  5
15D
330
1E
100
AcDbEntity
  8
SIZE
  6
CONTINUOUS
 62
    30
100
AcDbLine
 10
349.9999999999997
 20
-1484.577999999999
 30
0.0
 11
344.9999999999997
 21
-1484.577999999999
 31
0.0
  0
TEXT
  5
15E
330
1E
100
AcDbEntity
  8
SIZE
  6
CONTINUOUS
 62
    30
100
AcDbText
 10
-68.57142857142865
 20
-1464.577999999999
 30
0.0
 40
64.0
  1
710
 41
0.9
 72
     1
 11
-0.0000000000000853
 21
-1464.577999999999
 31
0.0
100
AcDbText
  0
POINT
  5
15F
330
1E
100
AcDbEntity
  8
DEFPOINTS
  6
CONTINUOUS
 62
     7
100
AcDbPoint
 10
-355.0
 20
-609.0
 30
0.0
  0
POINT
  5
160
330
1E
100
AcDbEntity
  8
DEFPOINTS
  6
CONTINUOUS
 62
     7
100
AcDbPoint
 10
354.9999999999998
 20
-609.0
 30
0.0
  0
POINT
  5
161
330
1E
100
AcDbEntity
  8
DEFPOINTS
  6
CONTINUOUS
 62
     7
100
AcDbPoint
 10
354.9999999999997
 20
-1484.577999999999
 30
0.0
  0
LINE
  5
162
330
1E
100
AcDbEntity
  8
SIZE
  6
CONTINUOUS
 62
    30
100
AcDbLine
 10
-317.0
 20
-613.0
 30
0.0
 11
-317.0
 21
-1381.899009999999
 31
0.0
  0
LINE
  5
163
330
1E
100
AcDbEntity
  8
SIZE
  6
CONTINUOUS
 62
    30
100
AcDbLine
 10
317.0
 20
-613.0
 30
0.0
 11
316.9999999999999
 21
-1381.899009999999
 31
0.0
  0
LINE
  5
164
330
1E
100
AcDbEntity
  8
SIZE
  6
CONTINUOUS
 62
    30
100
AcDbLine
 10
-307.0
 20
-1351.899009999999
 30
0.0
 11
306.9999999999998
 21
-1351.899009999999
 31
0.0
  0
CIRCLE
  5
165
330
1E
100
AcDbEntity
  8
SIZE
  6
CONTINUOUS
 62
    30
100
AcDbCircle
 10
-317.0
 20
-1351.899009999999
 30
0.0
 40
5.0
  0
LINE
  5
166
330
1E
100
AcDbEntity
  8
SIZE
  6
CONTINUOUS
 62
    30
100
AcDbLine
 10
-312.0
 20
-1351.899009999999
 30
0.0
 11
-307.0
 21
-1351.899009999999
 31
0.0
  0
CIRCLE
  5
167
330
1E
100
AcDbEntity
  8
SIZE
  6
CONTINUOUS
 62
    30
100
AcDbCircle
 10
316.9999999999999
 20
-1351.899009999999
 30
0.0
 40
5.0
  0
LINE
  5
168
330
1E
100
AcDbEntity
  8
SIZE
  6
CONTINUOUS
 62
    30
100
AcDbLine
 10
311.9999999999998
 20
-1351.899009999999
 30
0.0
 11
306.9999999999998
 21
-1351.899009999999
 31
0.0
  0
TEXT
  5
169
330
1E
100
AcDbEntity
  8
SIZE
  6
CONTINUOUS
 62
    30
100
AcDbText
 10
-75.42857142857148
 20
-1331.899009999998
 30
0.0
 40
64.0
  1
634
 41
0.9
 72
     1
 11
-0.0000000000000568
 21
-1331.899009999998
 31
0.0
100
AcDbText
  0
POINT
  5
16A
330
1E
100
AcDbEntity
  8
DEFPOINTS
  6
CONTINUOUS
 62
     7
100
AcDbPoint
 10
-317.0
 20
-593.0
 30
0.0
  0
POINT
  5
16B
330
1E
100
AcDbEntity
  8
DEFPOINTS
  6
CONTINUOUS
 62
     7
100
AcDbPoint
 10
317.0
 20
-593.0
 30
0.0
  0
POINT
  5
16C
330
1E
100
AcDbEntity
  8
DEFPOINTS
  6
CONTINUOUS
 62
     7
100
AcDbPoint
 10
316.9999999999999
 20
-1351.899009999999
 30
0.0
  0
LINE
  5
16D
330
1E
100
AcDbEntity
  8
SIZE
  6
CONTINUOUS
 62
    30
100
AcDbLine
 10
317.0
 20
-613.0
 30
0.0
 11
316.9999999999999
 21
-1245.208
 31
0.0
  0
LINE
  5
16E
330
1E
100
AcDbEntity
  8
SIZE
  6
CONTINUOUS
 62
    30
100
AcDbLine
 10
-190.0
 20
-542.9999999999981
 30
0.0
 11
-190.0
 21
-1245.208
 31
0.0
  0
LINE
  5
16F
330
1E
100
AcDbEntity
  8
SIZE
  6
CONTINUOUS
 62
    30
100
AcDbLine
 10
306.9999999999998
 20
-1215.208
 30
0.0
 11
-180.0
 21
-1215.208
 31
0.0
  0
CIRCLE
  5
170
330
1E
100
AcDbEntity
  8
SIZE
  6
CONTINUOUS
 62
    30
100
AcDbCircle
 10
316.9999999999999
 20
-1215.208
 30
0.0
 40
5.0
  0
LINE
  5
171
330
1E
100
AcDbEntity
  8
SIZE
  6
CONTINUOUS
 62
    30
100
AcDbLine
 10
311.9999999999998
 20
-1215.208
 30
0.0
 11
306.9999999999998
 21
-1215.208
 31
0.0
  0
CIRCLE
  5
172
330
1E
100
AcDbEntity
  8
SIZE
  6
CONTINUOUS
 62
    30
100
AcDbCircle
 10
-190.0
 20
-1215.208
 30
0.0
 40
5.0
  0
LINE
  5
173
330
1E
100
AcDbEntity
  8
SIZE
  6
CONTINUOUS
 62
    30
100
AcDbLine
 10
-185.0
 20
-1215.208
 30
0.0
 11
-180.0
 21
-1215.208
 31
0.0
  0
TEXT
  5
174
330
1E
100
AcDbEntity
  8
SIZE
  6
CONTINUOUS
 62
    30
100
AcDbText
 10
-10.55714285714288
 20
-1195.208
 30
0.0
 40
64.0
  1
507
 41
0.9
 72
     1
 11
63.49999999999996
 21
-1195.208
 31
0.0
100
AcDbText
  0
POINT
  5
175
330
1E
100
AcDbEntity
  8
DEFPOINTS
  6
CONTINUOUS
 62
     7
100
AcDbPoint
 10
317.0
 20
-593.0
 30
0.0
  0
POINT
  5
176
330
1E
100
AcDbEntity
  8
DEFPOINTS
  6
CONTINUOUS
 62
     7
100
AcDbPoint
 10
-190.0
 20
-522.999999999998
 30
0.0
  0
POINT
  5
177
330
1E
100
AcDbEntity
  8
DEFPOINTS
  6
CONTINUOUS
 62
     7
100
AcDbPoint
 10
-190.0
 20
-1215.208
 30
0.0
  0
LINE
  5
178
330
1E
100
AcDbEntity
  8
SIZE
  6
CONTINUOUS
 62
    30
100
AcDbLine
 10
-180.0
 20
-512.9999999999982
 30
0.0
 11
-180.0
 21
-1102.82075
 31
0.0
  0
LINE
  5
179
330
1E
100
AcDbEntity
  8
SIZE
  6
CONTINUOUS
 62
    30
100
AcDbLine
 10
317.0
 20
-613.0
 30
0.0
 11
316.9999999999999
 21
-1102.82075
 31
0.0
  0
LINE
  5
17A
330
1E
100
AcDbEntity
  8
SIZE
  6
CONTINUOUS
 62
    30
100
AcDbLine
 10
-170.0
 20
-1072.82075
 30
0.0
 11
306.9999999999998
 21
-1072.82075
 31
0.0
  0
CIRCLE
  5
17B
330
1E
100
AcDbEntity
  8
SIZE
  6
CONTINUOUS
 62
    30
100
AcDbCircle
 10
-180.0
 20
-1072.82075
 30
0.0
 40
5.0
  0
LINE
  5
17C
330
1E
100
AcDbEntity
  8
SIZE
  6
CONTINUOUS
 62
    30
100
AcDbLine
 10
-175.0
 20
-1072.82075
 30
0.0
 11
-170.0
 21
-1072.82075
 31
0.0
  0
CIRCLE
  5
17D
330
1E
100
AcDbEntity
  8
SIZE
  6
CONTINUOUS
 62
    30
100
AcDbCircle
 10
316.9999999999999
 20
-1072.82075
 30
0.0
 40
5.0
  0
LINE
  5
17E
330
1E
100
AcDbEntity
  8
SIZE
  6
CONTINUOUS
 62
    30
100
AcDbLine
 10
311.9999999999998
 20
-1072.82075
 30
0.0
 11
306.9999999999998
 21
-1072.82075
 31
0.0
  0
TEXT
  5
17F
330
1E
100
AcDbEntity
  8
SIZE
  6
CONTINUOUS
 62
    30
100
AcDbText
 10
-5.557142857142892
 20
-1052.82075
 30
0.0
 40
64.0
  1
497
 41
0.9
 72
     1
 11
68.49999999999996
 21
-1052.82075
 31
0.0
100
AcDbText
  0
POINT
  5
180
330
1E
100
AcDbEntity
  8
DEFPOINTS
  6
CONTINUOUS
 62
     7
100
AcDbPoint
 10
-180.0
 20
-492.9999999999981
 30
0.0
  0
POINT
  5
181
330
1E
100
AcDbEntity
  8
DEFPOINTS
  6
CONTINUOUS
 62
     7
100
AcDbPoint
 10
317.0
 20
-593.0
 30
0.0
  0
POINT
  5
182
330
1E
100
AcDbEntity
  8
DEFPOINTS
  6
CONTINUOUS
 62
     7
100
AcDbPoint
 10
316.9999999999999
 20
-1072.82075
 30
0.0
  0
LINE
  5
183
330
1E
100
AcDbEntity
  8
SIZE
  6
CONTINUOUS
 62
    30
100
AcDbLine
 10
317.0
 20
-613.0
 30
0.0
 11
317.0
 21
-949.893538
 31
0.0
  0
LINE
  5
184
330
1E
100
AcDbEntity
  8
SIZE
  6
CONTINUOUS
 62
    30
100
AcDbLine
 10
-10.0
 20
-626.999999999998
 30
0.0
 11
-10.00000000000001
 21
-949.893538
 31
0.0
  0
LINE
  5
185
330
1E
100
AcDbEntity
  8
SIZE
  6
CONTINUOUS
 62
    30
100
AcDbLine
 10
307.0
 20
-919.8935380000001
 30
0.0
 11
-0.0000000000000195
 21
-919.8935380000001
 31
0.0
  0
CIRCLE
  5
186
330
1E
100
AcDbEntity
  8
SIZE
  6
CONTINUOUS
 62
    30
100
AcDbCircle
 10
317.0
 20
-919.8935380000001
 30
0.0
 40
5.0
  0
LINE
  5
187
330
1E
100
AcDbEntity
  8
SIZE
  6
CONTINUOUS
 62
    30
100
AcDbLine
 10
312.0
 20
-919.8935380000001
 30
0.0
 11
307.0
 21
-919.8935380000001
 31
0.0
  0
CIRCLE
  5
188
330
1E
100
AcDbEntity
  8
SIZE
  6
CONTINUOUS
 62
    30
100
AcDbCircle
 10
-10.00000000000001
 20
-919.8935380000001
 30
0.0
 40
5.0
  0
LINE
  5
189
330
1E
100
AcDbEntity
  8
SIZE
  6
CONTINUOUS
 62
    30
100
AcDbLine
 10
-5.00000000000001
 20
-919.8935380000001
 30
0.0
 11
-0.0000000000000107
 21
-919.8935380000001
 31
0.0
  0
TEXT
  5
18A
330
1E
100
AcDbEntity
  8
SIZE
  6
CONTINUOUS
 62
    30
100
AcDbText
 10
79.44285714285715
 20
-899.8935380000002
 30
0.0
 40
64.0
  1
327
 41
0.9
 72
     1
 11
153.5
 21
-899.8935380000002
 31
0.0
100
AcDbText
  0
POINT
  5
18B
330
1E
100
AcDbEntity
  8
DEFPOINTS
  6
CONTINUOUS
 62
     7
100
AcDbPoint
 10
317.0
 20
-593.0
 30
0.0
  0
POINT
  5
18C
330
1E
100
AcDbEntity
  8
DEFPOINTS
  6
CONTINUOUS
 62
     7
100
AcDbPoint
 10
-10.0
 20
-606.999999999998
 30
0.0
  0
POINT
  5
18D
330
1E
100
AcDbEntity
  8
DEFPOINTS
  6
CONTINUOUS
 62
     7
100
AcDbPoint
 10
-10.00000000000001
 20
-919.8935380000001
 30
0.0
  0
LINE
  5
18E
330
1E
100
AcDbEntity
  8
SIZE
  6
CONTINUOUS
 62
    30
100
AcDbLine
 10
-10.0
 20
-626.999999999998
 30
0.0
 11
-10.00000000000001
 21
-949.893538
 31
0.0
  0
LINE
  5
18F
330
1E
100
AcDbEntity
  8
SIZE
  6
CONTINUOUS
 62
    30
100
AcDbLine
 10
-68.0
 20
-626.999999999998
 30
0.0
 11
-68.00000000000001
 21
-949.893538
 31
0.0
  0
LINE
  5
190
330
1E
100
AcDbEntity
  8
SIZE
  6
CONTINUOUS
 62
    30
100
AcDbLine
 10
-0.0000000000000195
 20
-919.8935380000001
 30
0.0
 11
9.99999999999998
 21
-919.8935380000001
 31
0.0
  0
LINE
  5
191
330
1E
100
AcDbEntity
  8
SIZE
  6
CONTINUOUS
 62
    30
100
AcDbLine
 10
-78.00000000000001
 20
-919.8935380000001
 30
0.0
 11
-88.00000000000002
 21
-919.8935380000001
 31
0.0
  0
LINE
  5
192
330
1E
100
AcDbEntity
  8
SIZE
  6
CONTINUOUS
 62
    30
100
AcDbLine
 10
-10.00000000000001
 20
-919.8935380000001
 30
0.0
 11
-68.00000000000001
 21
-919.8935380000001
 31
0.0
  0
CIRCLE
  5
193
330
1E
100
AcDbEntity
  8
SIZE
  6
CONTINUOUS
 62
    30
100
AcDbCircle
 10
-10.00000000000001
 20
-919.8935380000001
 30
0.0
 40
5.0
  0
LINE
  5
194
330
1E
100
AcDbEntity
  8
SIZE
  6
CONTINUOUS
 62
    30
100
AcDbLine
 10
-5.00000000000001
 20
-919.8935380000001
 30
0.0
 11
-0.0000000000000107
 21
-919.8935380000001
 31
0.0
  0
CIRCLE
  5
195
330
1E
100
AcDbEntity
  8
SIZE
  6
CONTINUOUS
 62
    30
100
AcDbCircle
 10
-68.00000000000001
 20
-919.8935380000001
 30
0.0
 40
5.0
  0
LINE
  5
196
330
1E
100
AcDbEntity
  8
SIZE
  6
CONTINUOUS
 62
    30
100
AcDbLine
 10
-73.00000000000001
 20
-919.8935380000001
 30
0.0
 11
-78.00000000000001
 21
-919.8935380000001
 31
0.0
  0
TEXT
  5
197
330
1E
100
AcDbEntity
  8
SIZE
  6
CONTINUOUS
 62
    30
100
AcDbText
 10
-85.62857142857144
 20
-899.8935380000002
 30
0.0
 40
64.0
  1
58
 41
0.9
 72
     1
 11
-39.0
 21
-899.8935380000002
 31
0.0
100
AcDbText
  0
POINT
  5
198
330
1E
100
AcDbEntity
  8
DEFPOINTS
  6
CONTINUOUS
 62
     7
100
AcDbPoint
 10
-10.0
 20
-606.999999999998
 30
0.0
  0
POINT
  5
199
330
1E
100
AcDbEntity
  8
DEFPOINTS
  6
CONTINUOUS
 62
     7
100
AcDbPoint
 10
-68.0
 20
-606.999999999998
 30
0.0
  0
POINT
  5
19A
330
1E
100
AcDbEntity
  8
DEFPOINTS
  6
CONTINUOUS
 62
     7
100
AcDbPoint
 10
-68.00000000000001
 20
-919.8935380000001
 30
0.0
  0
LINE
  5
19B
330
1E
100
AcDbEntity
  8
DETAIL
  6
CONTINUOUS
 62
     5
100
AcDbLine
 10
338.9999999999998
 20
-625.0
 30
0.0
 11
-339.0
 21
-625.0
 31
0.0
  0
LINE
  5
19C
330
1E
100
AcDbEntity
  8
DETAIL
  6
CONTINUOUS
 62
     5
100
AcDbLine
 10
317.0
 20
-472.999999999998
 30
0.0
 11
-317.0
 21
-472.999999999998
 31
0.0
  0
LINE
  5
19D
330
1E
100
AcDbEntity
  8
DETAIL
  6
CONTINUOUS
 62
     5
100
AcDbLine
 10
317.0
 20
-593.0
 30
0.0
 11
-317.0
 21
-593.0
 31
0.0
  0
LINE
  5
19E
330
1E
100
AcDbEntity
  8
SERVICESPACE
  6
DASHDOT
 62
     2
100
AcDbLine
 10
-335.0
 20
-605.0
 30
0.0
 11
334.9999999999998
 21
-605.0
 31
0.0
  0
ARC
  5
19F
330
1E
100
AcDbEntity
  8
DETAIL
  6
CONTINUOUS
 62
     5
100
AcDbCircle
 10
-339.0
 20
-609.0
 30
0.0
 40
16.0
100
AcDbArc
 50
180.0
 51
270.0
  0
LINE
  5
1A0
330
1E
100
AcDbEntity
  8
DETAIL
  6
CONTINUOUS
 62
     5
100
AcDbLine
 10
-262.0
 20
-472.999999999998
 30
0.0
 11
-262.0
 21
-523.0000000000017
 31
0.0
  0
LINE
  5
1A1
330
1E
100
AcDbEntity
  8
DETAIL
  6
CONTINUOUS
 62
     5
100
AcDbLine
 10
-312.0
 20
-472.999999999998
 30
0.0
 11
-312.0
 21
-523.0000000000017
 31
0.0
  0
LINE
  5
1A2
330
1E
100
AcDbEntity
  8
NOTE
  6
CONTINUOUS
 62
     4
100
AcDbLine
 10
-287.0
 20
-516.9999999999982
 30
0.0
 11
-287.0
 21
-476.999999999998
 31
0.0
  0
LINE
  5
1A3
330
1E
100
AcDbEntity
  8
NOTE
  6
CONTINUOUS
 62
     4
100
AcDbLine
 10
-307.0
 20
-496.9999999999981
 30
0.0
 11
-267.0
 21
-496.9999999999981
 31
0.0
  0
CIRCLE
  5
1A4
330
1E
100
AcDbEntity
  8
FIX
  6
CONTINUOUS
 62
    11
100
AcDbCircle
 10
-287.0
 20
-496.9999999999981
 30
0.0
 40
20.0
  0
LINE
  5
1A5
330
1E
100
AcDbEntity
  8
DETAIL
  6
CONTINUOUS
 62
     5
100
AcDbLine
 10
-292.9999999999994
 20
-523.0000000000017
 30
0.0
 11
-312.0
 21
-523.0000000000017
 31
0.0
  0
LINE
  5
1A6
330
1E
100
AcDbEntity
  8
DETAIL
  6
CONTINUOUS
 62
     5
100
AcDbLine
 10
-292.9999999999994
 20
-523.0000000000017
 30
0.0
 11
-292.9999999999994
 21
-504.0
 31
0.0
  0
LINE
  5
1A7
330
1E
100
AcDbEntity
  8
DETAIL
  6
CONTINUOUS
 62
     5
100
AcDbLine
 10
-294.9999999999993
 20
-504.0
 30
0.0
 11
-292.9999999999994
 21
-504.0
 31
0.0
  0
ARC
  5
1A8
330
1E
100
AcDbEntity
  8
DETAIL
  6
CONTINUOUS
 62
     5
100
AcDbCircle
 10
-294.9999999999993
 20
-497.0
 30
0.0
 40
7.0
100
AcDbArc
 50
90.00000000000005
 51
270.0
  0
LINE
  5
1A9
330
1E
100
AcDbEntity
  8
DETAIL
  6
CONTINUOUS
 62
     5
100
AcDbLine
 10
-280.9999999999993
 20
-523.0000000000017
 30
0.0
 11
-280.9999999999993
 21
-504.0
 31
0.0
  0
LINE
  5
1AA
330
1E
100
AcDbEntity
  8
DETAIL
  6
CONTINUOUS
 62
     5
100
AcDbLine
 10
-280.9999999999993
 20
-504.0
 30
0.0
 11
-278.9999999999995
 21
-504.0
 31
0.0
  0
ARC
  5
1AB
330
1E
100
AcDbEntity
  8
DETAIL
  6
CONTINUOUS
 62
     5
100
AcDbCircle
 10
-278.9999999999995
 20
-497.0
 30
0.0
 40
7.0
100
AcDbArc
 50
270.0
 51
90.00000000000005
  0
LINE
  5
1AC
330
1E
100
AcDbEntity
  8
DETAIL
  6
CONTINUOUS
 62
     5
100
AcDbLine
 10
-262.0
 20
-523.0000000000017
 30
0.0
 11
-280.9999999999993
 21
-523.0000000000017
 31
0.0
  0
LINE
  5
1AD
330
1E
100
AcDbEntity
  8
DETAIL
  6
CONTINUOUS
 62
     5
100
AcDbLine
 10
-294.9999999999993
 20
-490.0
 30
0.0
 11
-278.9999999999995
 21
-490.0
 31
0.0
  0
LWPOLYLINE
  5
1AE
330
1E
100
AcDbEntity
  8
NOTE
  6
CONTINUOUS
 62
     4
100
AcDbPolyline
 90
        3
 70
     0
 43
0.0
 10
-202.0904619999988
 20
-506.3468359999988
 10
-179.9999999999986
 20
-472.999999999998
 10
-215.8043189999987
 20
-490.833975999998
  0
LINE
  5
1B3
330
1E
100
AcDbEntity
  8
NOTE
  6
CONTINUOUS
 62
     4
100
AcDbLine
 10
-200.0
 20
-472.999999999998
 30
0.0
 11
-160.0
 21
-472.999999999998
 31
0.0
  0
LINE
  5
1B4
330
1E
100
AcDbEntity
  8
NOTE
  6
CONTINUOUS
 62
     4
100
AcDbLine
 10
-180.0
 20
-492.9999999999981
 30
0.0
 11
-180.0
 21
-452.999999999998
 31
0.0
  0
LINE
  5
1B5
330
1E
100
AcDbEntity
  8
NOTE
  6
CONTINUOUS
 62
     4
100
AcDbLine
 10
-210.0
 20
-502.999999999998
 30
0.0
 11
-170.0
 21
-502.999999999998
 31
0.0
  0
LINE
  5
1B6
330
1E
100
AcDbEntity
  8
NOTE
  6
CONTINUOUS
 62
     4
100
AcDbLine
 10
-190.0
 20
-522.999999999998
 30
0.0
 11
-190.0
 21
-482.9999999999982
 31
0.0
  0
LINE
  5
1B7
330
1E
100
AcDbEntity
  8
DETAIL
  6
CONTINUOUS
 62
     5
100
AcDbLine
 10
-177.5
 20
-502.999999999998
 30
0.0
 11
-177.5
 21
-472.999999999998
 31
0.0
  0
LINE
  5
1B8
330
1E
100
AcDbEntity
  8
DETAIL
  6
CONTINUOUS
 62
     5
100
AcDbLine
 10
-202.4999999999999
 20
-502.999999999998
 30
0.0
 11
-202.4999999999999
 21
-472.999999999998
 31
0.0
  0
LINE
  5
1B9
330
1E
100
AcDbEntity
  8
DETAIL
  6
CONTINUOUS
 62
     5
100
AcDbLine
 10
-202.4999999999999
 20
-502.999999999998
 30
0.0
 11
-177.5
 21
-502.999999999998
 31
0.0
  0
LWPOLYLINE
  5
1BA
330
1E
100
AcDbEntity
  8
NOTE
  6
CONTINUOUS
 62
     4
100
AcDbPolyline
 90
        3
 70
     0
 43
0.0
 10
-206.1096507501426
 20
-539.6125543399048
 10
-189.9999999999991
 20
-502.999999999998
 10
-222.2576437152866
 20
-526.6525766241175
  0
LINE
  5
1BF
330
1E
100
AcDbEntity
  8
DETAIL
  6
CONTINUOUS
 62
     5
100
AcDbLine
 10
30.0
 20
-586.999999999998
 30
0.0
 11
30.0
 21
-472.999999999998
 31
0.0
  0
LINE
  5
1C0
330
1E
100
AcDbEntity
  8
DETAIL
  6
CONTINUOUS
 62
     5
100
AcDbLine
 10
-108.0
 20
-586.999999999998
 30
0.0
 11
-108.0
 21
-472.999999999998
 31
0.0
  0
LWPOLYLINE
  5
1C1
330
1E
100
AcDbEntity
  8
NOTE
  6
CONTINUOUS
 62
     4
100
AcDbPolyline
 90
        3
 70
     0
 43
0.0
 10
-19.37617115930005
 20
-625.8855680664984
 10
-9.99999999999917
 20
-587.0
 10
-37.56278625292241
 20
-615.9878040249368
  0
LINE
  5
1C6
330
1E
100
AcDbEntity
  8
DETAIL
  6
CONTINUOUS
 62
     5
100
AcDbLine
 10
30.0
 20
-586.999999999998
 30
0.0
 11
-108.0
 21
-586.999999999998
 31
0.0
  0
LWPOLYLINE
  5
1C7
330
1E
100
AcDbEntity
  8
NOTE
  6
CONTINUOUS
 62
     4
100
AcDbPolyline
 90
        3
 70
     0
 43
0.0
 10
-81.98645156076155
 20
-624.4750470615472
 10
-68.00000000000048
 20
-587.0
 10
-98.85014626411846
 20
-612.4611165028162
  0
LINE
  5
1CC
330
1E
100
AcDbEntity
  8
NOTE
  6
CONTINUOUS
 62
     4
100
AcDbLine
 10
-88.0
 20
-586.999999999998
 30
0.0
 11
-48.0
 21
-586.999999999998
 31
0.0
  0
LINE
  5
1CD
330
1E
100
AcDbEntity
  8
NOTE
  6
CONTINUOUS
 62
     4
100
AcDbLine
 10
-68.0
 20
-606.999999999998
 30
0.0
 11
-68.0
 21
-566.999999999998
 31
0.0
  0
LINE
  5
1CE
330
1E
100
AcDbEntity
  8
NOTE
  6
CONTINUOUS
 62
     4
100
AcDbLine
 10
-30.0
 20
-586.999999999998
 30
0.0
 11
10.0
 21
-586.999999999998
 31
0.0
  0
LINE
  5
1CF
330
1E
100
AcDbEntity
  8
NOTE
  6
CONTINUOUS
 62
     4
100
AcDbLine
 10
-10.0
 20
-606.999999999998
 30
0.0
 11
-10.0
 21
-566.999999999998
 31
0.0
  0
LINE
  5
1D0
330
1E
100
AcDbEntity
  8
NOTE
  6
CONTINUOUS
 62
     4
100
AcDbLine
 10
-337.0
 20
-251.999999999998
 30
0.0
 11
-297.0
 21
-251.999999999998
 31
0.0
  0
LWPOLYLINE
  5
1D1
330
1E
100
AcDbEntity
  8
NOTE
  6
CONTINUOUS
 62
     4
100
AcDbPolyline
 90
        3
 70
     0
 43
0.0
 10
-356.0535929662961
 20
-260.6496766345534
 10
-316.9999999999987
 20
-252.0
 10
-346.4965642299317
 20
-279.0176360757431
  0
LINE
  5
1D6
330
1E
100
AcDbEntity
  8
NOTE
  6
CONTINUOUS
 62
     4
100
AcDbLine
 10
-317.0
 20
-271.999999999998
 30
0.0
 11
-317.0
 21
-231.9999999999982
 31
0.0
  0
LINE
  5
1D7
330
1E
100
AcDbEntity
  8
NOTE
  6
CONTINUOUS
 62
     4
100
AcDbLine
 10
-337.0
 20
-34.49999999999818
 30
0.0
 11
-297.0
 21
-34.49999999999818
 31
0.0
  0
LINE
  5
1D8
330
1E
100
AcDbEntity
  8
NOTE
  6
CONTINUOUS
 62
     4
100
AcDbLine
 10
-317.0
 20
-54.49999999999818
 30
0.0
 11
-317.0
 21
-14.49999999999818
 31
0.0
  0
CIRCLE
  5
1D9
330
1E
100
AcDbEntity
  8
ARRANGE
  6
CONTINUOUS
 62
     1
100
AcDbCircle
 10
0.0
 20
0.0
 30
0.0
 40
40.0
  0
LINE
  5
1DA
330
1E
100
AcDbEntity
  8
NOTE
  6
CONTINUOUS
 62
     4
100
AcDbLine
 10
266.9999999999999
 20
-496.9999999999981
 30
0.0
 11
306.9999999999998
 21
-496.9999999999981
 31
0.0
  0
CIRCLE
  5
1DB
330
1E
100
AcDbEntity
  8
FIX
  6
CONTINUOUS
 62
    11
100
AcDbCircle
 10
286.9999999999998
 20
-496.9999999999981
 30
0.0
 40
20.0
  0
LINE
  5
1DC
330
1E
100
AcDbEntity
  8
DETAIL
  6
CONTINUOUS
 62
     5
100
AcDbLine
 10
312.0000000000006
 20
-523.0
 30
0.0
 11
293.0000000000012
 21
-523.0
 31
0.0
  0
ARC
  5
1DD
330
1E
100
AcDbEntity
  8
DETAIL
  6
CONTINUOUS
 62
     5
100
AcDbCircle
 10
295.0000000000012
 20
-497.0
 30
0.0
 40
7.0
100
AcDbArc
 50
270.0
 51
90.00000000000005
  0
LWPOLYLINE
  5
1DE
330
1E
100
AcDbEntity
  8
NOTE
  6
CONTINUOUS
 62
     4
100
AcDbPolyline
 90
        3
 70
     0
 43
0.0
 10
130.0737412546033
 20
-567.4721232162884
 10
101.0000000000007
 20
-540.0
 10
112.4425372679648
 20
-578.3284270497315
  0
LINE
  5
1E3
330
1E
100
AcDbEntity
  8
NOTE
  6
CONTINUOUS
 62
     4
100
AcDbLine
 10
171.0
 20
-565.999999999998
 30
0.0
 11
171.0
 21
-525.9999999999982
 31
0.0
  0
LINE
  5
1E4
330
1E
100
AcDbEntity
  8
NOTE
  6
CONTINUOUS
 62
     4
100
AcDbLine
 10
101.0
 20
-559.999999999998
 30
0.0
 11
101.0
 21
-519.999999999998
 31
0.0
  0
LWPOLYLINE
  5
1E5
330
1E
100
AcDbEntity
  8
NOTE
  6
CONTINUOUS
 62
     4
100
AcDbPolyline
 90
        3
 70
     0
 43
0.0
 10
203.193292999999
 20
-569.7400899999975
 10
170.999999999999
 20
-545.9999999999982
 10
187.010163999999
 20
-582.6561679999976
  0
LINE
  5
1EA
330
1E
100
AcDbEntity
  8
NOTE
  6
CONTINUOUS
 62
     4
100
AcDbLine
 10
151.0
 20
-545.9999999999982
 30
0.0
 11
191.0
 21
-545.9999999999982
 31
0.0
  0
LINE
  5
1EB
330
1E
100
AcDbEntity
  8
NOTE
  6
CONTINUOUS
 62
     4
100
AcDbLine
 10
81.0
 20
-539.999999999998
 30
0.0
 11
121.0
 21
-539.999999999998
 31
0.0
  0
LINE
  5
1EC
330
1E
100
AcDbEntity
  8
DETAIL
  6
CONTINUOUS
 62
     5
100
AcDbLine
 10
164.65
 20
-545.9999999999982
 30
0.0
 11
164.65
 21
-472.999999999998
 31
0.0
  0
LINE
  5
1ED
330
1E
100
AcDbEntity
  8
DETAIL
  6
CONTINUOUS
 62
     5
100
AcDbLine
 10
177.35
 20
-545.9999999999982
 30
0.0
 11
177.35
 21
-472.999999999998
 31
0.0
  0
LINE
  5
1EE
330
1E
100
AcDbEntity
  8
DETAIL
  6
CONTINUOUS
 62
     5
100
AcDbLine
 10
104.1749999999999
 20
-539.999999999998
 30
0.0
 11
104.1749999999999
 21
-472.999999999998
 31
0.0
  0
LINE
  5
1EF
330
1E
100
AcDbEntity
  8
DETAIL
  6
CONTINUOUS
 62
     5
100
AcDbLine
 10
97.825
 20
-539.999999999998
 30
0.0
 11
97.825
 21
-472.999999999998
 31
0.0
  0
LINE
  5
1F0
330
1E
100
AcDbEntity
  8
DETAIL
  6
CONTINUOUS
 62
     5
100
AcDbLine
 10
97.825
 20
-539.999999999998
 30
0.0
 11
104.1749999999999
 21
-539.999999999998
 31
0.0
  0
LINE
  5
1F1
330
1E
100
AcDbEntity
  8
DETAIL
  6
CONTINUOUS
 62
     5
100
AcDbLine
 10
164.65
 20
-545.9999999999982
 30
0.0
 11
177.35
 21
-545.9999999999982
 31
0.0
  0
LINE
  5
1F2
330
1E
100
AcDbEntity
  8
DETAIL
  6
CONTINUOUS
 62
     5
100
AcDbLine
 10
261.9999999999998
 20
-472.999999999998
 30
0.0
 11
261.9999999999998
 21
-523.0
 31
0.0
  0
LINE
  5
1F3
330
1E
100
AcDbEntity
  8
NOTE
  6
CONTINUOUS
 62
     4
100
AcDbLine
 10
286.9999999999998
 20
-516.9999999999982
 30
0.0
 11
286.9999999999998
 21
-476.999999999998
 31
0.0
  0
LINE
  5
1F4
330
1E
100
AcDbEntity
  8
DETAIL
  6
CONTINUOUS
 62
     5
100
AcDbLine
 10
281.0000000000012
 20
-523.0
 30
0.0
 11
262.0000000000006
 21
-523.0
 31
0.0
  0
LINE
  5
1F5
330
1E
100
AcDbEntity
  8
DETAIL
  6
CONTINUOUS
 62
     5
100
AcDbLine
 10
281.0000000000012
 20
-523.0
 30
0.0
 11
281.0000000000012
 21
-504.0
 31
0.0
  0
LINE
  5
1F6
330
1E
100
AcDbEntity
  8
DETAIL
  6
CONTINUOUS
 62
     5
100
AcDbLine
 10
293.0000000000012
 20
-523.0
 30
0.0
 11
293.0000000000012
 21
-504.0
 31
0.0
  0
ARC
  5
1F7
330
1E
100
AcDbEntity
  8
DETAIL
  6
CONTINUOUS
 62
     5
100
AcDbCircle
 10
279.0000000000012
 20
-497.0
 30
0.0
 40
7.0
100
AcDbArc
 50
90.00000000000005
 51
270.0
  0
LINE
  5
1F8
330
1E
100
AcDbEntity
  8
DETAIL
  6
CONTINUOUS
 62
     5
100
AcDbLine
 10
279.0000000000012
 20
-504.0
 30
0.0
 11
281.0000000000012
 21
-504.0
 31
0.0
  0
LINE
  5
1F9
330
1E
100
AcDbEntity
  8
DETAIL
  6
CONTINUOUS
 62
     5
100
AcDbLine
 10
293.0000000000012
 20
-504.0
 30
0.0
 11
295.0000000000012
 21
-504.0
 31
0.0
  0
LINE
  5
1FA
330
1E
100
AcDbEntity
  8
DETAIL
  6
CONTINUOUS
 62
     5
100
AcDbLine
 10
279.0000000000012
 20
-490.0
 30
0.0
 11
295.0000000000012
 21
-490.0
 31
0.0
  0
ARC
  5
1FB
330
1E
100
AcDbEntity
  8
DETAIL
  6
CONTINUOUS
 62
     5
100
AcDbCircle
 10
338.9999999999998
 20
-609.0
 30
0.0
 40
16.0
100
AcDbArc
 50
270.0
 51
0.0
  0
LINE
  5
1FC
330
1E
100
AcDbEntity
  8
DETAIL
  6
CONTINUOUS
 62
     5
100
AcDbLine
 10
311.9999999999998
 20
-472.999999999998
 30
0.0
 11
311.9999999999997
 21
-523.0
 31
0.0
  0
LINE
  5
1FD
330
1E
100
AcDbEntity
  8
NOTE
  6
CONTINUOUS
 62
     4
100
AcDbLine
 10
297.0
 20
-34.49999999999818
 30
0.0
 11
337.0
 21
-34.49999999999818
 31
0.0
  0
LINE
  5
1FE
330
1E
100
AcDbEntity
  8
NOTE
  6
CONTINUOUS
 62
     4
100
AcDbLine
 10
297.0
 20
-251.999999999998
 30
0.0
 11
337.0
 21
-251.999999999998
 31
0.0
  0
LWPOLYLINE
  5
1FF
330
1E
100
AcDbEntity
  8
NOTE
  6
CONTINUOUS
 62
     4
100
AcDbPolyline
 90
        3
 70
     0
 43
0.0
 10
345.5020128056253
 20
-280.0648409132717
 10
316.9999999999985
 20
-251.9999999999963
 10
327.6510458417807
 20
-290.5558709273681
  0
LINE
  5
204
330
1E
100
AcDbEntity
  8
NOTE
  6
CONTINUOUS
 62
     4
100
AcDbLine
 10
317.0
 20
-271.999999999998
 30
0.0
 11
317.0
 21
-231.9999999999982
 31
0.0
  0
LINE
  5
205
330
1E
100
AcDbEntity
  8
NOTE
  6
CONTINUOUS
 62
     4
100
AcDbLine
 10
317.0
 20
-54.49999999999818
 30
0.0
 11
317.0
 21
-14.49999999999818
 31
0.0
  0
TEXT
  5
206
330
1E
100
AcDbEntity
  8
NOTE
  6
CONTINUOUS
 62
     4
100
AcDbText
 10
719.2217969309224
 20
-838.0293585380933
 30
0.0
 40
64.0
  1
6-%%c2.9
 41
0.9
100
AcDbText
  0
LINE
  5
207
330
1E
100
AcDbEntity
  8
NOTE
  6
CONTINUOUS
 62
     4
100
AcDbLine
 10
675.5596052555247
 20
-858.4647232857621
 30
0.0
 11
1081.819800255523
 21
-858.4647232857621
 31
0.0
  0
LINE
  5
208
330
1E
100
AcDbEntity
  8
NOTE
  6
CONTINUOUS
 62
     4
100
AcDbLine
 10
287.0000000000002
 20
497.0
 30
0.0
 11
679.4201655534716
 21
874.5193060284018
 31
0.0
  0
LINE
  5
209
330
1E
100
AcDbEntity
  8
SIZE
  6
CONTINUOUS
 62
    30
100
AcDbLine
 10
335.0
 20
497.0
 30
0.0
 11
1279.882061852944
 21
496.9999999999997
 31
0.0
  0
LINE
  5
20A
330
1E
100
AcDbEntity
  8
SIZE
  6
CONTINUOUS
 62
    30
100
AcDbLine
 10
354.9999999999998
 20
605.0
 30
0.0
 11
1279.882061852944
 21
604.9999999999998
 31
0.0
  0
LINE
  5
20B
330
1E
100
AcDbEntity
  8
SIZE
  6
CONTINUOUS
 62
    30
100
AcDbLine
 10
1249.882061852944
 20
506.9999999999997
 30
0.0
 11
1249.882061852944
 21
594.9999999999999
 31
0.0
  0
LINE
  5
20C
330
1E
100
AcDbEntity
  8
SIZE
  6
CONTINUOUS
 62
    30
100
AcDbLine
 10
1249.882061852944
 20
604.9999999999998
 30
0.0
 11
1249.882061852944
 21
792.1428571428577
 31
0.0
  0
CIRCLE
  5
20D
330
1E
100
AcDbEntity
  8
SIZE
  6
CONTINUOUS
 62
    30
100
AcDbCircle
 10
1249.882061852944
 20
496.9999999999997
 30
0.0
 40
5.0
  0
LINE
  5
20E
330
1E
100
AcDbEntity
  8
SIZE
  6
CONTINUOUS
 62
    30
100
AcDbLine
 10
1249.882061852944
 20
501.9999999999996
 30
0.0
 11
1249.882061852944
 21
506.9999999999997
 31
0.0
  0
CIRCLE
  5
20F
330
1E
100
AcDbEntity
  8
SIZE
  6
CONTINUOUS
 62
    30
100
AcDbCircle
 10
1249.882061852944
 20
604.9999999999998
 30
0.0
 40
5.0
  0
LINE
  5
210
330
1E
100
AcDbEntity
  8
SIZE
  6
CONTINUOUS
 62
    30
100
AcDbLine
 10
1249.882061852944
 20
599.9999999999998
 30
0.0
 11
1249.882061852944
 21
594.9999999999997
 31
0.0
  0
TEXT
  5
211
330
1E
100
AcDbEntity
  8
SIZE
  6
CONTINUOUS
 62
    30
100
AcDbText
 10
1229.882061852944
 20
635.0000000000009
 30
0.0
 40
64.0
  1
108
 50
90.0
 41
0.9
 72
     1
 11
1229.882061852944
 21
703.5714285714294
 31
0.0
100
AcDbText
  0
POINT
  5
212
330
1E
100
AcDbEntity
  8
DEFPOINTS
  6
CONTINUOUS
 62
     7
100
AcDbPoint
 10
315.0
 20
497.0
 30
0.0
  0
POINT
  5
213
330
1E
100
AcDbEntity
  8
DEFPOINTS
  6
CONTINUOUS
 62
     7
100
AcDbPoint
 10
334.9999999999998
 20
605.0
 30
0.0
  0
POINT
  5
214
330
1E
100
AcDbEntity
  8
DEFPOINTS
  6
CONTINUOUS
 62
     7
100
AcDbPoint
 10
1249.882061852944
 20
604.9999999999998
 30
0.0
  0
LINE
  5
215
330
1E
100
AcDbEntity
  8
SIZE
  6
CONTINUOUS
 62
    30
100
AcDbLine
 10
315.0000000000011
 20
504.0
 30
0.0
 11
644.3673777938292
 21
503.9999999999999
 31
0.0
  0
LINE
  5
216
330
1E
100
AcDbEntity
  8
SIZE
  6
CONTINUOUS
 62
    30
100
AcDbLine
 10
315.0000000000011
 20
490.0
 30
0.0
 11
644.3673777938292
 21
489.9999999999997
 31
0.0
  0
LINE
  5
217
330
1E
100
AcDbEntity
  8
SIZE
  6
CONTINUOUS
 62
    30
100
AcDbLine
 10
614.3673777938293
 20
513.9999999999997
 30
0.0
 11
614.3673777938293
 21
523.9999999999999
 31
0.0
  0
LINE
  5
218
330
1E
100
AcDbEntity
  8
SIZE
  6
CONTINUOUS
 62
    30
100
AcDbLine
 10
614.3673777938293
 20
479.9999999999999
 30
0.0
 11
614.3673777938293
 21
279.6883452648633
 31
0.0
  0
LINE
  5
219
330
1E
100
AcDbEntity
  8
SIZE
  6
CONTINUOUS
 62
    30
100
AcDbLine
 10
614.3673777938293
 20
503.9999999999999
 30
0.0
 11
614.3673777938293
 21
489.9999999999999
 31
0.0
  0
CIRCLE
  5
21A
330
1E
100
AcDbEntity
  8
SIZE
  6
CONTINUOUS
 62
    30
100
AcDbCircle
 10
614.3673777938293
 20
503.9999999999999
 30
0.0
 40
5.0
  0
LINE
  5
21B
330
1E
100
AcDbEntity
  8
SIZE
  6
CONTINUOUS
 62
    30
100
AcDbLine
 10
614.3673777938293
 20
508.9999999999999
 30
0.0
 11
614.3673777938293
 21
513.9999999999998
 31
0.0
  0
CIRCLE
  5
21C
330
1E
100
AcDbEntity
  8
SIZE
  6
CONTINUOUS
 62
    30
100
AcDbCircle
 10
614.3673777938293
 20
489.9999999999999
 30
0.0
 40
5.0
  0
LINE
  5
21D
330
1E
100
AcDbEntity
  8
SIZE
  6
CONTINUOUS
 62
    30
100
AcDbLine
 10
614.3673777938293
 20
484.9999999999999
 30
0.0
 11
614.3673777938293
 21
479.9999999999999
 31
0.0
  0
TEXT
  5
21E
330
1E
100
AcDbEntity
  8
SIZE
  6
CONTINUOUS
 62
    30
100
AcDbText
 10
594.3673777938292
 20
299.6883452648631
 30
0.0
 40
64.0
  1
14
 50
90.0
 41
0.9
 72
     1
 11
594.3673777938292
 21
342.2026309791489
 31
0.0
100
AcDbText
  0
POINT
  5
21F
330
1E
100
AcDbEntity
  8
DEFPOINTS
  6
CONTINUOUS
 62
     7
100
AcDbPoint
 10
295.0000000000012
 20
504.0
 30
0.0
  0
POINT
  5
220
330
1E
100
AcDbEntity
  8
DEFPOINTS
  6
CONTINUOUS
 62
     7
100
AcDbPoint
 10
295.0000000000012
 20
490.0
 30
0.0
  0
POINT
  5
221
330
1E
100
AcDbEntity
  8
DEFPOINTS
  6
CONTINUOUS
 62
     7
100
AcDbPoint
 10
614.3673777938293
 20
489.9999999999999
 30
0.0
  0
LINE
  5
222
330
1E
100
AcDbEntity
  8
SIZE
  6
CONTINUOUS
 62
    30
100
AcDbLine
 10
287.0
 20
537.0
 30
0.0
 11
287.0
 21
829.9070319999989
 31
0.0
  0
LINE
  5
223
330
1E
100
AcDbEntity
  8
SIZE
  6
CONTINUOUS
 62
    30
100
AcDbLine
 10
334.9999999999998
 20
625.0
 30
0.0
 11
334.9999999999998
 21
829.9070319999989
 31
0.0
  0
LINE
  5
224
330
1E
100
AcDbEntity
  8
SIZE
  6
CONTINUOUS
 62
    30
100
AcDbLine
 10
277.0
 20
799.9070319999989
 30
0.0
 11
267.0
 21
799.9070319999989
 31
0.0
  0
LINE
  5
225
330
1E
100
AcDbEntity
  8
SIZE
  6
CONTINUOUS
 62
    30
100
AcDbLine
 10
344.9999999999998
 20
799.9070319999989
 30
0.0
 11
488.2571428571428
 21
799.9070319999989
 31
0.0
  0
LINE
  5
226
330
1E
100
AcDbEntity
  8
SIZE
  6
CONTINUOUS
 62
    30
100
AcDbLine
 10
287.0
 20
799.9070319999989
 30
0.0
 11
334.9999999999998
 21
799.9070319999989
 31
0.0
  0
CIRCLE
  5
227
330
1E
100
AcDbEntity
  8
SIZE
  6
CONTINUOUS
 62
    30
100
AcDbCircle
 10
287.0
 20
799.9070319999989
 30
0.0
 40
5.0
  0
LINE
  5
228
330
1E
100
AcDbEntity
  8
SIZE
  6
CONTINUOUS
 62
    30
100
AcDbLine
 10
282.0
 20
799.9070319999989
 30
0.0
 11
277.0
 21
799.9070319999989
 31
0.0
  0
CIRCLE
  5
229
330
1E
100
AcDbEntity
  8
SIZE
  6
CONTINUOUS
 62
    30
100
AcDbCircle
 10
334.9999999999998
 20
799.9070319999989
 30
0.0
 40
5.0
  0
LINE
  5
22A
330
1E
100
AcDbEntity
  8
SIZE
  6
CONTINUOUS
 62
    30
100
AcDbLine
 10
339.9999999999999
 20
799.9070319999989
 30
0.0
 11
344.9999999999998
 21
799.9070319999989
 31
0.0
  0
TEXT
  5
22B
330
1E
100
AcDbEntity
  8
SIZE
  6
CONTINUOUS
 62
    30
100
AcDbText
 10
374.9999999999999
 20
819.9070319999989
 30
0.0
 40
64.0
  1
48
 41
0.9
 72
     1
 11
421.6285714285714
 21
819.9070319999989
 31
0.0
100
AcDbText
  0
POINT
  5
22C
330
1E
100
AcDbEntity
  8
DEFPOINTS
  6
CONTINUOUS
 62
     7
100
AcDbPoint
 10
287.0
 20
517.0
 30
0.0
  0
POINT
  5
22D
330
1E
100
AcDbEntity
  8
DEFPOINTS
  6
CONTINUOUS
 62
     7
100
AcDbPoint
 10
334.9999999999998
 20
605.0
 30
0.0
  0
POINT
  5
22E
330
1E
100
AcDbEntity
  8
DEFPOINTS
  6
CONTINUOUS
 62
     7
100
AcDbPoint
 10
334.9999999999998
 20
799.9070319999989
 30
0.0
  0
LINE
  5
22F
330
1E
100
AcDbEntity
  8
SIZE
  6
CONTINUOUS
 62
    30
100
AcDbLine
 10
-287.0
 20
537.0000000000016
 30
0.0
 11
-287.0
 21
829.9070319999989
 31
0.0
  0
LINE
  5
230
330
1E
100
AcDbEntity
  8
SIZE
  6
CONTINUOUS
 62
    30
100
AcDbLine
 10
287.0
 20
537.0
 30
0.0
 11
287.0
 21
829.9070319999989
 31
0.0
  0
LINE
  5
231
330
1E
100
AcDbEntity
  8
SIZE
  6
CONTINUOUS
 62
    30
100
AcDbLine
 10
-277.0
 20
799.9070319999989
 30
0.0
 11
277.0
 21
799.9070319999989
 31
0.0
  0
CIRCLE
  5
232
330
1E
100
AcDbEntity
  8
SIZE
  6
CONTINUOUS
 62
    30
100
AcDbCircle
 10
-287.0
 20
799.9070319999989
 30
0.0
 40
5.0
  0
LINE
  5
233
330
1E
100
AcDbEntity
  8
SIZE
  6
CONTINUOUS
 62
    30
100
AcDbLine
 10
-282.0
 20
799.9070319999989
 30
0.0
 11
-277.0
 21
799.9070319999989
 31
0.0
  0
CIRCLE
  5
234
330
1E
100
AcDbEntity
  8
SIZE
  6
CONTINUOUS
 62
    30
100
AcDbCircle
 10
287.0
 20
799.9070319999989
 30
0.0
 40
5.0
  0
LINE
  5
235
330
1E
100
AcDbEntity
  8
SIZE
  6
CONTINUOUS
 62
    30
100
AcDbLine
 10
282.0
 20
799.9070319999989
 30
0.0
 11
277.0
 21
799.9070319999989
 31
0.0
  0
TEXT
  5
236
330
1E
100
AcDbEntity
  8
SIZE
  6
CONTINUOUS
 62
    30
100
AcDbText
 10
-75.42857142857139
 20
819.9070319999989
 30
0.0
 40
64.0
  1
574
 41
0.9
 72
     1
 11
0.0000000000000284
 21
819.9070319999989
 31
0.0
100
AcDbText
  0
POINT
  5
237
330
1E
100
AcDbEntity
  8
DEFPOINTS
  6
CONTINUOUS
 62
     7
100
AcDbPoint
 10
-287.0
 20
517.0000000000016
 30
0.0
  0
POINT
  5
238
330
1E
100
AcDbEntity
  8
DEFPOINTS
  6
CONTINUOUS
 62
     7
100
AcDbPoint
 10
287.0
 20
517.0
 30
0.0
  0
POINT
  5
239
330
1E
100
AcDbEntity
  8
DEFPOINTS
  6
CONTINUOUS
 62
     7
100
AcDbPoint
 10
287.0
 20
799.9070319999989
 30
0.0
  0
LINE
  5
23A
330
1E
100
AcDbEntity
  8
SIZE
  6
CONTINUOUS
 62
    30
100
AcDbLine
 10
-335.0
 20
625.0
 30
0.0
 11
-334.9999999999998
 21
1119.633812723136
 31
0.0
  0
LINE
  5
23B
330
1E
100
AcDbEntity
  8
SIZE
  6
CONTINUOUS
 62
    30
100
AcDbLine
 10
334.9999999999998
 20
625.0
 30
0.0
 11
335.0
 21
1119.633812723136
 31
0.0
  0
LINE
  5
23C
330
1E
100
AcDbEntity
  8
SIZE
  6
CONTINUOUS
 62
    30
100
AcDbLine
 10
-324.9999999999999
 20
1089.633812723137
 30
0.0
 11
325.0
 21
1089.633812723137
 31
0.0
  0
CIRCLE
  5
23D
330
1E
100
AcDbEntity
  8
SIZE
  6
CONTINUOUS
 62
    30
100
AcDbCircle
 10
-334.9999999999998
 20
1089.633812723137
 30
0.0
 40
5.0
  0
LINE
  5
23E
330
1E
100
AcDbEntity
  8
SIZE
  6
CONTINUOUS
 62
    30
100
AcDbLine
 10
-329.9999999999998
 20
1089.633812723137
 30
0.0
 11
-324.9999999999999
 21
1089.633812723137
 31
0.0
  0
CIRCLE
  5
23F
330
1E
100
AcDbEntity
  8
SIZE
  6
CONTINUOUS
 62
    30
100
AcDbCircle
 10
335.0
 20
1089.633812723137
 30
0.0
 40
5.0
  0
LINE
  5
240
330
1E
100
AcDbEntity
  8
SIZE
  6
CONTINUOUS
 62
    30
100
AcDbLine
 10
330.0
 20
1089.633812723137
 30
0.0
 11
325.0
 21
1089.633812723137
 31
0.0
  0
TEXT
  5
241
330
1E
100
AcDbEntity
  8
SIZE
  6
CONTINUOUS
 62
    30
100
AcDbText
 10
-74.05714285714282
 20
1109.633812723137
 30
0.0
 40
64.0
  1
670
 41
0.9
 72
     1
 11
0.0000000000000284
 21
1109.633812723137
 31
0.0
100
AcDbText
  0
POINT
  5
242
330
1E
100
AcDbEntity
  8
DEFPOINTS
  6
CONTINUOUS
 62
     7
100
AcDbPoint
 10
-335.0
 20
605.0
 30
0.0
  0
POINT
  5
243
330
1E
100
AcDbEntity
  8
DEFPOINTS
  6
CONTINUOUS
 62
     7
100
AcDbPoint
 10
334.9999999999998
 20
605.0
 30
0.0
  0
POINT
  5
244
330
1E
100
AcDbEntity
  8
DEFPOINTS
  6
CONTINUOUS
 62
     7
100
AcDbPoint
 10
335.0
 20
1089.633812723137
 30
0.0
  0
LINE
  5
245
330
1E
100
AcDbEntity
  8
SIZE
  6
CONTINUOUS
 62
    30
100
AcDbLine
 10
334.9999999999998
 20
625.0
 30
0.0
 11
335.0
 21
1119.633812723136
 31
0.0
  0
LINE
  5
246
330
1E
100
AcDbEntity
  8
SIZE
  6
CONTINUOUS
 62
    30
100
AcDbLine
 10
354.9999999999998
 20
629.0
 30
0.0
 11
355.0
 21
1119.633812723136
 31
0.0
  0
LINE
  5
247
330
1E
100
AcDbEntity
  8
SIZE
  6
CONTINUOUS
 62
    30
100
AcDbLine
 10
325.0
 20
1089.633812723137
 30
0.0
 11
315.0
 21
1089.633812723137
 31
0.0
  0
LINE
  5
248
330
1E
100
AcDbEntity
  8
SIZE
  6
CONTINUOUS
 62
    30
100
AcDbLine
 10
365.0
 20
1089.633812723137
 30
0.0
 11
508.2571428571427
 21
1089.633812723137
 31
0.0
  0
LINE
  5
249
330
1E
100
AcDbEntity
  8
SIZE
  6
CONTINUOUS
 62
    30
100
AcDbLine
 10
335.0
 20
1089.633812723137
 30
0.0
 11
355.0
 21
1089.633812723137
 31
0.0
  0
CIRCLE
  5
24A
330
1E
100
AcDbEntity
  8
SIZE
  6
CONTINUOUS
 62
    30
100
AcDbCircle
 10
335.0
 20
1089.633812723137
 30
0.0
 40
5.0
  0
LINE
  5
24B
330
1E
100
AcDbEntity
  8
SIZE
  6
CONTINUOUS
 62
    30
100
AcDbLine
 10
330.0
 20
1089.633812723137
 30
0.0
 11
325.0
 21
1089.633812723137
 31
0.0
  0
CIRCLE
  5
24C
330
1E
100
AcDbEntity
  8
SIZE
  6
CONTINUOUS
 62
    30
100
AcDbCircle
 10
355.0
 20
1089.633812723137
 30
0.0
 40
5.0
  0
LINE
  5
24D
330
1E
100
AcDbEntity
  8
SIZE
  6
CONTINUOUS
 62
    30
100
AcDbLine
 10
360.0
 20
1089.633812723137
 30
0.0
 11
365.0
 21
1089.633812723137
 31
0.0
  0
TEXT
  5
24E
330
1E
100
AcDbEntity
  8
SIZE
  6
CONTINUOUS
 62
    30
100
AcDbText
 10
394.9999999999999
 20
1109.633812723137
 30
0.0
 40
64.0
  1
20
 41
0.9
 72
     1
 11
441.6285714285713
 21
1109.633812723137
 31
0.0
100
AcDbText
  0
POINT
  5
24F
330
1E
100
AcDbEntity
  8
DEFPOINTS
  6
CONTINUOUS
 62
     7
100
AcDbPoint
 10
334.9999999999998
 20
605.0
 30
0.0
  0
POINT
  5
250
330
1E
100
AcDbEntity
  8
DEFPOINTS
  6
CONTINUOUS
 62
     7
100
AcDbPoint
 10
354.9999999999998
 20
609.0
 30
0.0
  0
POINT
  5
251
330
1E
100
AcDbEntity
  8
DEFPOINTS
  6
CONTINUOUS
 62
     7
100
AcDbPoint
 10
355.0
 20
1089.633812723137
 30
0.0
  0
LINE
  5
252
330
1E
100
AcDbEntity
  8
DETAIL
  6
CONTINUOUS
 62
     5
100
AcDbLine
 10
338.9999999999998
 20
625.0
 30
0.0
 11
-339.0
 21
625.0
 31
0.0
  0
LINE
  5
253
330
1E
100
AcDbEntity
  8
DETAIL
  6
CONTINUOUS
 62
     5
100
AcDbLine
 10
317.0
 20
473.0
 30
0.0
 11
-317.0
 21
473.0
 31
0.0
  0
LINE
  5
254
330
1E
100
AcDbEntity
  8
DETAIL
  6
CONTINUOUS
 62
     5
100
AcDbLine
 10
317.0
 20
593.0
 30
0.0
 11
-317.0
 21
593.0
 31
0.0
  0
LINE
  5
255
330
1E
100
AcDbEntity
  8
SERVICESPACE
  6
DASHDOT
 62
     2
100
AcDbLine
 10
-335.0
 20
605.0
 30
0.0
 11
334.9999999999998
 21
605.0
 31
0.0
  0
TEXT
  5
256
330
1E
100
AcDbEntity
  8
NOTE
  6
CONTINUOUS
 62
     4
100
AcDbText
 10
-317.0000107657329
 20
220.9333857934269
 30
0.0
 40
64.0
  1
Ceiling opening
 41
0.9
100
AcDbText
  0
LINE
  5
257
330
1E
100
AcDbEntity
  8
NOTE
  6
CONTINUOUS
 62
     4
100
AcDbLine
 10
-317.0
 20
163.0000000000018
 30
0.0
 11
-317.0
 21
203.0000000000017
 31
0.0
  0
LINE
  5
258
330
1E
100
AcDbEntity
  8
NOTE
  6
CONTINUOUS
 62
     4
100
AcDbLine
 10
-337.0
 20
183.0000000000017
 30
0.0
 11
-297.0
 21
183.0000000000017
 31
0.0
  0
ARC
  5
259
330
1E
100
AcDbEntity
  8
DETAIL
  6
CONTINUOUS
 62
     5
100
AcDbCircle
 10
-339.0
 20
609.0
 30
0.0
 40
16.0
100
AcDbArc
 50
90.0
 51
180.0
  0
LINE
  5
25A
330
1E
100
AcDbEntity
  8
DETAIL
  6
CONTINUOUS
 62
     5
100
AcDbLine
 10
-312.0
 20
473.0000000000017
 30
0.0
 11
-312.0
 21
523.0
 31
0.0
  0
LINE
  5
25B
330
1E
100
AcDbEntity
  8
DETAIL
  6
CONTINUOUS
 62
     5
100
AcDbLine
 10
-262.0
 20
473.0000000000017
 30
0.0
 11
-262.0
 21
523.0
 31
0.0
  0
LINE
  5
25C
330
1E
100
AcDbEntity
  8
DETAIL
  6
CONTINUOUS
 62
     5
100
AcDbLine
 10
-292.9999999999994
 20
523.0
 30
0.0
 11
-292.9999999999994
 21
504.0
 31
0.0
  0
LINE
  5
25D
330
1E
100
AcDbEntity
  8
DETAIL
  6
CONTINUOUS
 62
     5
100
AcDbLine
 10
-280.9999999999993
 20
523.0
 30
0.0
 11
-280.9999999999993
 21
504.0
 31
0.0
  0
LINE
  5
25E
330
1E
100
AcDbEntity
  8
NOTE
  6
CONTINUOUS
 62
     4
100
AcDbLine
 10
-286.9999999999993
 20
477.0
 30
0.0
 11
-286.9999999999993
 21
517.0
 31
0.0
  0
LINE
  5
25F
330
1E
100
AcDbEntity
  8
NOTE
  6
CONTINUOUS
 62
     4
100
AcDbLine
 10
-306.9999999999993
 20
497.0
 30
0.0
 11
-266.9999999999995
 21
497.0
 31
0.0
  0
CIRCLE
  5
260
330
1E
100
AcDbEntity
  8
FIX
  6
CONTINUOUS
 62
    11
100
AcDbCircle
 10
-286.9999999999993
 20
497.0
 30
0.0
 40
20.0
  0
LINE
  5
261
330
1E
100
AcDbEntity
  8
DETAIL
  6
CONTINUOUS
 62
     5
100
AcDbLine
 10
-262.0
 20
523.0
 30
0.0
 11
-280.9999999999993
 21
523.0
 31
0.0
  0
LINE
  5
262
330
1E
100
AcDbEntity
  8
DETAIL
  6
CONTINUOUS
 62
     5
100
AcDbLine
 10
-292.9999999999994
 20
523.0
 30
0.0
 11
-312.0
 21
523.0
 31
0.0
  0
ARC
  5
263
330
1E
100
AcDbEntity
  8
DETAIL
  6
CONTINUOUS
 62
     5
100
AcDbCircle
 10
-294.9999999999993
 20
497.0
 30
0.0
 40
7.0
100
AcDbArc
 50
90.0
 51
270.0
  0
ARC
  5
264
330
1E
100
AcDbEntity
  8
DETAIL
  6
CONTINUOUS
 62
     5
100
AcDbCircle
 10
-278.9999999999995
 20
497.0
 30
0.0
 40
7.0
100
AcDbArc
 50
270.0
 51
90.0
  0
LINE
  5
265
330
1E
100
AcDbEntity
  8
DETAIL
  6
CONTINUOUS
 62
     5
100
AcDbLine
 10
-294.9999999999993
 20
490.0
 30
0.0
 11
-278.9999999999995
 21
490.0
 31
0.0
  0
LINE
  5
266
330
1E
100
AcDbEntity
  8
DETAIL
  6
CONTINUOUS
 62
     5
100
AcDbLine
 10
-294.9999999999993
 20
504.0
 30
0.0
 11
-292.9999999999994
 21
504.0
 31
0.0
  0
LINE
  5
267
330
1E
100
AcDbEntity
  8
DETAIL
  6
CONTINUOUS
 62
     5
100
AcDbLine
 10
-280.9999999999993
 20
504.0
 30
0.0
 11
-278.9999999999995
 21
504.0
 31
0.0
  0
LINE
  5
268
330
1E
100
AcDbEntity
  8
SIZE
  6
CONTINUOUS
 62
    30
100
AcDbLine
 10
272.0000000000012
 20
477.0
 30
0.0
 11
272.0000000000012
 21
310.573216349332
 31
0.0
  0
LINE
  5
269
330
1E
100
AcDbEntity
  8
SIZE
  6
CONTINUOUS
 62
    30
100
AcDbLine
 10
302.0000000000012
 20
476.999999999998
 30
0.0
 11
302.0000000000012
 21
310.573216349332
 31
0.0
  0
LINE
  5
26A
330
1E
100
AcDbEntity
  8
SIZE
  6
CONTINUOUS
 62
    30
100
AcDbLine
 10
262.0000000000012
 20
340.573216349332
 30
0.0
 11
252.0000000000012
 21
340.573216349332
 31
0.0
  0
LINE
  5
26B
330
1E
100
AcDbEntity
  8
SIZE
  6
CONTINUOUS
 62
    30
100
AcDbLine
 10
312.0000000000012
 20
340.573216349332
 30
0.0
 11
500.1928988058607
 21
340.573216349332
 31
0.0
  0
LINE
  5
26C
330
1E
100
AcDbEntity
  8
SIZE
  6
CONTINUOUS
 62
    30
100
AcDbLine
 10
272.0000000000012
 20
340.573216349332
 30
0.0
 11
302.0000000000012
 21
340.573216349332
 31
0.0
  0
CIRCLE
  5
26D
330
1E
100
AcDbEntity
  8
SIZE
  6
CONTINUOUS
 62
    30
100
AcDbCircle
 10
272.0000000000012
 20
340.573216349332
 30
0.0
 40
5.0
  0
LINE
  5
26E
330
1E
100
AcDbEntity
  8
SIZE
  6
CONTINUOUS
 62
    30
100
AcDbLine
 10
267.0000000000011
 20
340.573216349332
 30
0.0
 11
262.0000000000012
 21
340.573216349332
 31
0.0
  0
CIRCLE
  5
26F
330
1E
100
AcDbEntity
  8
SIZE
  6
CONTINUOUS
 62
    30
100
AcDbCircle
 10
302.0000000000012
 20
340.573216349332
 30
0.0
 40
5.0
  0
LINE
  5
270
330
1E
100
AcDbEntity
  8
SIZE
  6
CONTINUOUS
 62
    30
100
AcDbLine
 10
307.0000000000011
 20
340.573216349332
 30
0.0
 11
312.0000000000012
 21
340.573216349332
 31
0.0
  0
TEXT
  5
271
330
1E
100
AcDbEntity
  8
SIZE
  6
CONTINUOUS
 62
    30
100
AcDbText
 10
386.9357559487179
 20
360.573216349332
 30
0.0
 40
64.0
  1
30
 41
0.9
 72
     1
 11
433.5643273772894
 21
360.573216349332
 31
0.0
100
AcDbText
  0
POINT
  5
272
330
1E
100
AcDbEntity
  8
DEFPOINTS
  6
CONTINUOUS
 62
     7
100
AcDbPoint
 10
272.0000000000012
 20
497.0
 30
0.0
  0
POINT
  5
273
330
1E
100
AcDbEntity
  8
DEFPOINTS
  6
CONTINUOUS
 62
     7
100
AcDbPoint
 10
302.0000000000012
 20
496.9999999999981
 30
0.0
  0
POINT
  5
274
330
1E
100
AcDbEntity
  8
DEFPOINTS
  6
CONTINUOUS
 62
     7
100
AcDbPoint
 10
302.0000000000012
 20
340.573216349332
 30
0.0
  0
LINE
  5
275
330
1E
100
AcDbEntity
  8
NOTE
  6
CONTINUOUS
 62
     4
100
AcDbLine
 10
297.0
 20
183.0000000000017
 30
0.0
 11
337.0
 21
183.0000000000017
 31
0.0
  0
LINE
  5
276
330
1E
100
AcDbEntity
  8
NOTE
  6
CONTINUOUS
 62
     4
100
AcDbLine
 10
317.0
 20
163.0000000000018
 30
0.0
 11
317.0
 21
203.0000000000017
 31
0.0
  0
LWPOLYLINE
  5
277
330
1E
100
AcDbEntity
  8
NOTE
  6
CONTINUOUS
 62
     4
100
AcDbPolyline
 90
        3
 70
     0
 43
0.0
 10
307.7561481725341
 20
531.1933084462342
 10
287.0
 20
497.0
 10
322.0720053789992
 20
516.2341986884639
  0
LINE
  5
27C
330
1E
100
AcDbEntity
  8
NOTE
  6
CONTINUOUS
 62
     4
100
AcDbLine
 10
267.0
 20
497.0
 30
0.0
 11
307.0
 21
497.0
 31
0.0
  0
CIRCLE
  5
27D
330
1E
100
AcDbEntity
  8
FIX
  6
CONTINUOUS
 62
    11
100
AcDbCircle
 10
287.0
 20
497.0
 30
0.0
 40
20.0
  0
ARC
  5
27E
330
1E
100
AcDbEntity
  8
DETAIL
  6
CONTINUOUS
 62
     5
100
AcDbCircle
 10
295.0000000000012
 20
497.0
 30
0.0
 40
7.0
100
AcDbArc
 50
270.0
 51
90.0
  0
LINE
  5
27F
330
1E
100
AcDbEntity
  8
DETAIL
  6
CONTINUOUS
 62
     5
100
AcDbLine
 10
312.0000000000006
 20
523.0
 30
0.0
 11
293.0000000000012
 21
523.0
 31
0.0
  0
LINE
  5
280
330
1E
100
AcDbEntity
  8
SIZE
  6
CONTINUOUS
 62
    30
100
AcDbLine
 10
281.0000000000012
 20
543.0
 30
0.0
 11
281.0000000000012
 21
699.6942614820709
 31
0.0
  0
LINE
  5
281
330
1E
100
AcDbEntity
  8
SIZE
  6
CONTINUOUS
 62
    30
100
AcDbLine
 10
293.0000000000012
 20
543.0
 30
0.0
 11
293.0000000000012
 21
699.6942614820709
 31
0.0
  0
LINE
  5
282
330
1E
100
AcDbEntity
  8
SIZE
  6
CONTINUOUS
 62
    30
100
AcDbLine
 10
303.000000000001
 20
669.6942614820708
 30
0.0
 11
313.000000000001
 21
669.6942614820708
 31
0.0
  0
LINE
  5
283
330
1E
100
AcDbEntity
  8
SIZE
  6
CONTINUOUS
 62
    30
100
AcDbLine
 10
271.0000000000011
 20
669.6942614820708
 30
0.0
 11
138.7142857142869
 21
669.6942614820708
 31
0.0
  0
LINE
  5
284
330
1E
100
AcDbEntity
  8
SIZE
  6
CONTINUOUS
 62
    30
100
AcDbLine
 10
293.0000000000012
 20
669.6942614820708
 30
0.0
 11
281.0000000000012
 21
669.6942614820708
 31
0.0
  0
CIRCLE
  5
285
330
1E
100
AcDbEntity
  8
SIZE
  6
CONTINUOUS
 62
    30
100
AcDbCircle
 10
293.0000000000012
 20
669.6942614820708
 30
0.0
 40
5.0
  0
LINE
  5
286
330
1E
100
AcDbEntity
  8
SIZE
  6
CONTINUOUS
 62
    30
100
AcDbLine
 10
298.0000000000011
 20
669.6942614820708
 30
0.0
 11
303.0000000000011
 21
669.6942614820708
 31
0.0
  0
CIRCLE
  5
287
330
1E
100
AcDbEntity
  8
SIZE
  6
CONTINUOUS
 62
    30
100
AcDbCircle
 10
281.0000000000012
 20
669.6942614820708
 30
0.0
 40
5.0
  0
LINE
  5
288
330
1E
100
AcDbEntity
  8
SIZE
  6
CONTINUOUS
 62
    30
100
AcDbLine
 10
276.0000000000011
 20
669.6942614820708
 30
0.0
 11
271.0000000000011
 21
669.6942614820708
 31
0.0
  0
TEXT
  5
289
330
1E
100
AcDbEntity
  8
SIZE
  6
CONTINUOUS
 62
    30
100
AcDbText
 10
158.7142857142868
 20
689.6942614820709
 30
0.0
 40
64.0
  1
12
 41
0.9
 72
     1
 11
199.857142857144
 21
689.6942614820709
 31
0.0
100
AcDbText
  0
POINT
  5
28A
330
1E
100
AcDbEntity
  8
DEFPOINTS
  6
CONTINUOUS
 62
     7
100
AcDbPoint
 10
281.0000000000012
 20
523.0
 30
0.0
  0
POINT
  5
28B
330
1E
100
AcDbEntity
  8
DEFPOINTS
  6
CONTINUOUS
 62
     7
100
AcDbPoint
 10
293.0000000000012
 20
523.0
 30
0.0
  0
POINT
  5
28C
330
1E
100
AcDbEntity
  8
DEFPOINTS
  6
CONTINUOUS
 62
     7
100
AcDbPoint
 10
293.0000000000012
 20
669.6942614820708
 30
0.0
  0
LINE
  5
28D
330
1E
100
AcDbEntity
  8
DETAIL
  6
CONTINUOUS
 62
     5
100
AcDbLine
 10
262.0
 20
473.0
 30
0.0
 11
262.0
 21
523.0
 31
0.0
  0
LINE
  5
28E
330
1E
100
AcDbEntity
  8
NOTE
  6
CONTINUOUS
 62
     4
100
AcDbLine
 10
287.0
 20
477.0
 30
0.0
 11
287.0
 21
517.0
 31
0.0
  0
LINE
  5
28F
330
1E
100
AcDbEntity
  8
DETAIL
  6
CONTINUOUS
 62
     5
100
AcDbLine
 10
281.0000000000012
 20
523.0
 30
0.0
 11
262.0000000000006
 21
523.0
 31
0.0
  0
LINE
  5
290
330
1E
100
AcDbEntity
  8
DETAIL
  6
CONTINUOUS
 62
     5
100
AcDbLine
 10
281.0000000000012
 20
523.0
 30
0.0
 11
281.0000000000012
 21
504.0
 31
0.0
  0
ARC
  5
291
330
1E
100
AcDbEntity
  8
DETAIL
  6
CONTINUOUS
 62
     5
100
AcDbCircle
 10
279.0000000000012
 20
497.0
 30
0.0
 40
7.0
100
AcDbArc
 50
90.0
 51
270.0
  0
LINE
  5
292
330
1E
100
AcDbEntity
  8
DETAIL
  6
CONTINUOUS
 62
     5
100
AcDbLine
 10
279.0000000000012
 20
504.0
 30
0.0
 11
281.0000000000012
 21
504.0
 31
0.0
  0
LINE
  5
293
330
1E
100
AcDbEntity
  8
DETAIL
  6
CONTINUOUS
 62
     5
100
AcDbLine
 10
279.0000000000012
 20
490.0
 30
0.0
 11
295.0000000000012
 21
490.0
 31
0.0
  0
LINE
  5
294
330
1E
100
AcDbEntity
  8
DETAIL
  6
CONTINUOUS
 62
     5
100
AcDbLine
 10
293.0000000000012
 20
504.0
 30
0.0
 11
295.0000000000012
 21
504.0
 31
0.0
  0
LINE
  5
295
330
1E
100
AcDbEntity
  8
DETAIL
  6
CONTINUOUS
 62
     5
100
AcDbLine
 10
293.0000000000012
 20
523.0
 30
0.0
 11
293.0000000000012
 21
504.0
 31
0.0
  0
ARC
  5
296
330
1E
100
AcDbEntity
  8
DETAIL
  6
CONTINUOUS
 62
     5
100
AcDbCircle
 10
338.9999999999998
 20
609.0
 30
0.0
 40
16.0
100
AcDbArc
 50
0.0
 51
90.0
  0
LINE
  5
297
330
1E
100
AcDbEntity
  8
DETAIL
  6
CONTINUOUS
 62
     5
100
AcDbLine
 10
312.0
 20
473.0
 30
0.0
 11
312.0
 21
523.0
 31
0.0
  0
TEXT
  5
298
330
1E
100
AcDbEntity
  8
NOTE
  6
CONTINUOUS
 62
     4
100
AcDbText
 10
-351.859850033556
 20
1236.570224733691
 30
0.0
 40
64.0
  1
(Ceiling opening)
 41
0.9
100
AcDbText
  0
TEXT
  5
299
330
1E
100
AcDbEntity
  8
ETC
  6
CONTINUOUS
 62
    61
100
AcDbText
 10
759.2476249999998
 20
1103.080999999999
 30
0.0
 40
64.0
  1
PLFY-P50VLMD-E_6
 41
0.9
100
AcDbText
  0
LINE
  5
29A
330
1E
100
AcDbEntity
  8
NOTE
  6
CONTINUOUS
 62
     4
100
AcDbLine
 10
679.4201655534716
 20
874.5193060284018
 30
0.0
 11
1345.680360553471
 21
874.5193060284018
 31
0.0
  0
TEXT
  5
29B
330
1E
100
AcDbEntity
  8
NOTE
  6
CONTINUOUS
 62
     4
100
AcDbText
 10
753.0257045478149
 20
901.4200618735793
 30
0.0
 40
64.0
  1
AH 4-14X30
 41
0.9
100
AcDbText
  0
LINE
  5
29C
330
1E
100
AcDbEntity
  8
DETAIL
  6
CONTINUOUS
 62
     5
100
AcDbLine
 10
-285.0
 20
579.9999690000004
 30
0.0
 11
275.0
 21
579.9999690000004
 31
0.0
  0
LINE
  5
29D
330
1E
100
AcDbEntity
  8
DETAIL
  6
CONTINUOUS
 62
     5
100
AcDbLine
 10
-285.0
 20
-580.0
 30
0.0
 11
275.0
 21
-580.0
 31
0.0
  0
LINE
  5
29E
330
1E
100
AcDbEntity
  8
DETAIL
  6
CONTINUOUS
 62
     5
100
AcDbLine
 10
-193.0
 20
-577.9999690000003
 30
0.0
 11
-193.0
 21
577.9999690000003
 31
0.0
  0
LINE
  5
29F
330
1E
100
AcDbEntity
  8
DETAIL
  6
CONTINUOUS
 62
     5
100
AcDbLine
 10
183.0
 20
-577.9999690000039
 30
0.0
 11
182.9999999999991
 21
577.9999690000003
 31
0.0
  0
LINE
  5
2A0
330
1E
100
AcDbEntity
  8
DETAIL
  6
CONTINUOUS
 62
     5
100
AcDbLine
 10
-239.0
 20
-580.0
 30
0.0
 11
-239.0
 21
579.9999690000022
 31
0.0
  0
LINE
  5
2A1
330
1E
100
AcDbEntity
  8
DETAIL
  6
CONTINUOUS
 62
     5
100
AcDbLine
 10
-250.999999999999
 20
-577.0
 30
0.0
 11
-251.0
 21
576.9999690000004
 31
0.0
  0
LINE
  5
2A2
330
1E
100
AcDbEntity
  8
DETAIL
  6
CONTINUOUS
 62
     5
100
AcDbLine
 10
-260.9999999999989
 20
-577.0
 30
0.0
 11
-261.0
 21
576.9999690000004
 31
0.0
  0
LINE
  5
2A3
330
1E
100
AcDbEntity
  8
DETAIL
  6
CONTINUOUS
 62
     5
100
AcDbLine
 10
-272.0
 20
-577.0
 30
0.0
 11
-272.0
 21
576.9999690000004
 31
0.0
  0
LINE
  5
2A4
330
1E
100
AcDbEntity
  8
DETAIL
  6
CONTINUOUS
 62
     5
100
AcDbLine
 10
-291.0
 20
-561.0
 30
0.0
 11
-291.0
 21
560.9999690000003
 31
0.0
  0
LINE
  5
2A5
330
1E
100
AcDbEntity
  8
DETAIL
  6
CONTINUOUS
 62
     5
100
AcDbLine
 10
-303.0
 20
-562.0
 30
0.0
 11
-303.0
 21
561.9999690000004
 31
0.0
  0
LINE
  5
2A6
330
1E
100
AcDbEntity
  8
DETAIL
  6
CONTINUOUS
 62
     5
100
AcDbLine
 10
-251.0
 20
-577.0
 30
0.0
 11
-275.0
 21
-577.0
 31
0.0
  0
ARC
  5
2A7
330
1E
100
AcDbEntity
  8
DETAIL
  6
CONTINUOUS
 62
     5
100
AcDbCircle
 10
-275.0
 20
-561.0
 30
0.0
 40
16.0
100
AcDbArc
 50
180.0
 51
270.0
  0
ARC
  5
2A8
330
1E
100
AcDbEntity
  8
DETAIL
  6
CONTINUOUS
 62
     5
100
AcDbCircle
 10
-285.0
 20
-562.0
 30
0.0
 40
18.0
100
AcDbArc
 50
180.0
 51
270.0
  0
LINE
  5
2A9
330
1E
100
AcDbEntity
  8
DETAIL
  6
CONTINUOUS
 62
     5
100
AcDbLine
 10
-193.0000000000044
 20
-577.9999690000022
 30
0.0
 11
182.9999999999954
 21
-577.9999690000039
 31
0.0
  0
LINE
  5
2AA
330
1E
100
AcDbEntity
  8
DETAIL
  6
CONTINUOUS
 62
     5
100
AcDbLine
 10
-251.0
 20
576.9999690000004
 30
0.0
 11
-275.0
 21
576.9999690000004
 31
0.0
  0
ARC
  5
2AB
330
1E
100
AcDbEntity
  8
DETAIL
  6
CONTINUOUS
 62
     5
100
AcDbCircle
 10
-285.0
 20
561.9999690000004
 30
0.0
 40
18.0
100
AcDbArc
 50
90.0
 51
180.0
  0
ARC
  5
2AC
330
1E
100
AcDbEntity
  8
DETAIL
  6
CONTINUOUS
 62
     5
100
AcDbCircle
 10
-275.0
 20
560.9999690000003
 30
0.0
 40
16.0
100
AcDbArc
 50
90.0
 51
180.0
  0
LINE
  5
2AD
330
1E
100
AcDbEntity
  8
DETAIL
  6
CONTINUOUS
 62
     5
100
AcDbLine
 10
-193.0
 20
577.9999690000003
 30
0.0
 11
183.0
 21
577.9999690000003
 31
0.0
  0
LINE
  5
2AE
330
1E
100
AcDbEntity
  8
DETAIL
  6
CONTINUOUS
 62
     5
100
AcDbLine
 10
293.0000000000008
 20
-562.0
 30
0.0
 11
293.0
 21
561.9999690000004
 31
0.0
  0
LINE
  5
2AF
330
1E
100
AcDbEntity
  8
DETAIL
  6
CONTINUOUS
 62
     5
100
AcDbLine
 10
281.0
 20
-561.0
 30
0.0
 11
281.0000000000008
 21
560.9999690000003
 31
0.0
  0
LINE
  5
2B0
330
1E
100
AcDbEntity
  8
DETAIL
  6
CONTINUOUS
 62
     5
100
AcDbLine
 10
262.0000000000008
 20
-577.0
 30
0.0
 11
262.0
 21
576.9999690000004
 31
0.0
  0
LINE
  5
2B1
330
1E
100
AcDbEntity
  8
DETAIL
  6
CONTINUOUS
 62
     5
100
AcDbLine
 10
251.0
 20
-577.0
 30
0.0
 11
251.0
 21
576.9999690000004
 31
0.0
  0
LINE
  5
2B2
330
1E
100
AcDbEntity
  8
DETAIL
  6
CONTINUOUS
 62
     5
100
AcDbLine
 10
241.0
 20
-577.0
 30
0.0
 11
241.0
 21
576.9999690000004
 31
0.0
  0
LINE
  5
2B3
330
1E
100
AcDbEntity
  8
DETAIL
  6
CONTINUOUS
 62
     5
100
AcDbLine
 10
229.0
 20
-580.0
 30
0.0
 11
229.0
 21
579.9999690000022
 31
0.0
  0
ARC
  5
2B4
330
1E
100
AcDbEntity
  8
DETAIL
  6
CONTINUOUS
 62
     5
100
AcDbCircle
 10
265.0
 20
-561.0
 30
0.0
 40
16.0
100
AcDbArc
 50
270.0
 51
0.0
  0
LINE
  5
2B5
330
1E
100
AcDbEntity
  8
DETAIL
  6
CONTINUOUS
 62
     5
100
AcDbLine
 10
241.0
 20
-577.0
 30
0.0
 11
265.0
 21
-577.0
 31
0.0
  0
ARC
  5
2B6
330
1E
100
AcDbEntity
  8
DETAIL
  6
CONTINUOUS
 62
     5
100
AcDbCircle
 10
275.0
 20
-562.0
 30
0.0
 40
18.0
100
AcDbArc
 50
270.0
 51
0.0
  0
ARC
  5
2B7
330
1E
100
AcDbEntity
  8
DETAIL
  6
CONTINUOUS
 62
     5
100
AcDbCircle
 10
275.0
 20
561.9999690000004
 30
0.0
 40
18.0
100
AcDbArc
 50
0.0
 51
90.0
  0
LINE
  5
2B8
330
1E
100
AcDbEntity
  8
DETAIL
  6
CONTINUOUS
 62
     5
100
AcDbLine
 10
241.0
 20
576.9999690000004
 30
0.0
 11
265.0
 21
576.9999690000004
 31
0.0
  0
ARC
  5
2B9
330
1E
100
AcDbEntity
  8
DETAIL
  6
CONTINUOUS
 62
     5
100
AcDbCircle
 10
265.0
 20
560.9999690000003
 30
0.0
 40
16.0
100
AcDbArc
 50
0.0
 51
90.0
  0
LINE
  5
2BA
330
1E
100
AcDbEntity
  8
OUTLINE
  6
CONTINUOUS
 62
     3
100
AcDbLine
 10
-355.0
 20
-609.0
 30
0.0
 11
-355.0
 21
609.0
 31
0.0
  0
LINE
  5
2BB
330
1E
100
AcDbEntity
  8
OUTLINE
  6
CONTINUOUS
 62
     3
100
AcDbLine
 10
355.0
 20
-609.0
 30
0.0
 11
355.0
 21
609.0
 31
0.0
  0
LINE
  5
2BC
330
1E
100
AcDbEntity
  8
OUTLINE
  6
CONTINUOUS
 62
     3
100
AcDbLine
 10
339.0
 20
-625.0
 30
0.0
 11
-339.0
 21
-625.0
 31
0.0
  0
ARC
  5
2BD
330
1E
100
AcDbEntity
  8
OUTLINE
  6
CONTINUOUS
 62
     3
100
AcDbCircle
 10
-339.0
 20
-609.0
 30
0.0
 40
16.0
100
AcDbArc
 50
180.0
 51
270.0
  0
ARC
  5
2BE
330
1E
100
AcDbEntity
  8
OUTLINE
  6
CONTINUOUS
 62
     3
100
AcDbCircle
 10
339.0
 20
-609.0
 30
0.0
 40
16.0
100
AcDbArc
 50
270.0
 51
0.0
  0
LINE
  5
2BF
330
1E
100
AcDbEntity
  8
OUTLINE
  6
CONTINUOUS
 62
     3
100
AcDbLine
 10
339.0
 20
625.0
 30
0.0
 11
-339.0
 21
625.0
 31
0.0
  0
ARC
  5
2C0
330
1E
100
AcDbEntity
  8
OUTLINE
  6
CONTINUOUS
 62
     3
100
AcDbCircle
 10
-339.0
 20
609.0
 30
0.0
 40
16.0
100
AcDbArc
 50
90.0
 51
180.0
  0
ARC
  5
2C1
330
1E
100
AcDbEntity
  8
OUTLINE
  6
CONTINUOUS
 62
     3
100
AcDbCircle
 10
339.0
 20
609.0
 30
0.0
 40
16.0
100
AcDbArc
 50
0.0
 51
90.0
  0
LINE
  5
2C2
330
1E
100
AcDbEntity
  8
NOTE
  6
CONTINUOUS
 62
     4
100
AcDbLine
 10
786.2147057727175
 20
-1649.231530641814
 30
0.0
 11
1382.804566772716
 21
-1649.231530641814
 31
0.0
  0
LINE
  5
2C3
330
1E
100
AcDbEntity
  8
NOTE
  6
CONTINUOUS
 62
     4
100
AcDbLine
 10
630.4887218822803
 20
-1114.848429410415
 30
0.0
 11
1249.70190888228
 21
-1114.848429410415
 31
0.0
  0
TEXT
  5
2C4
330
1E
100
AcDbEntity
  8
NOTE
  6
CONTINUOUS
 62
     4
100
AcDbText
 10
663.7876714516326
 20
-1391.377778000508
 30
0.0
 40
64.0
  1
The other outdoor unit : %%c15.88
 41
0.9
100
AcDbText
  0
TEXT
  5
2C5
330
1E
100
AcDbEntity
  8
NOTE
  6
CONTINUOUS
 62
     4
100
AcDbText
 10
875.9013394639682
 20
-1902.436994773344
 30
0.0
 40
64.0
  1
The other outdoor unit : %%c9.52
 41
0.9
100
AcDbText
  0
TEXT
  5
2C6
330
1E
100
AcDbEntity
  8
NOTE
  6
CONTINUOUS
 62
     4
100
AcDbText
 10
673.148305417618
 20
-1252.826357891944
 30
0.0
 40
64.0
  1
R410A outdoor unit : %%c12.7
 41
0.9
100
AcDbText
  0
TEXT
  5
2C7
330
1E
100
AcDbEntity
  8
NOTE
  6
CONTINUOUS
 62
     4
100
AcDbText
 10
886.4776776192689
 20
-1776.776565932964
 30
0.0
 40
64.0
  1
R410A outdoor unit : %%c6.35
 41
0.9
100
AcDbText
  0
TEXT
  5
2C8
330
1E
100
AcDbEntity
  8
NOTE
  6
CONTINUOUS
 62
     4
100
AcDbText
 10
884.0379452649559
 20
-1605.187822313383
 30
0.0
 40
64.0
  1
RL %%c6.35
 41
0.9
100
AcDbText
  0
TEXT
  5
2C9
330
1E
100
AcDbEntity
  8
NOTE
  6
CONTINUOUS
 62
     4
100
AcDbText
 10
676.2091369988894
 20
-1078.084220235117
 30
0.0
 40
64.0
  1
RG %%c12.7
 41
0.9
100
AcDbText
  0
ENDSEC
  0
SECTION
  2
OBJECTS
  0
DICTIONARY
  5
C
330
0
100
AcDbDictionary
  3
ACAD_GROUP
350
D
  3
ACAD_LAYOUT
350
19
  3
ACAD_MLINESTYLE
350
16
  3
ACAD_PLOTSETTINGS
350
18
  3
ACAD_PLOTSTYLENAME
350
E
  3
ACDBHEADERROUNDTRIPXREC
350
2CC
  0
DICTIONARY
  5
2EF
330
1E
100
AcDbDictionary
280
     1
  3
ACAD_LAYOUTSELFREF
360
2F0
  0
DICTIONARY
  5
2ED
330
1A
100
AcDbDictionary
280
     1
  3
ACAD_LAYOUTSELFREF
360
2EE
  0
DICTIONARY
  5
D
102
{ACAD_REACTORS
330
C
102
}
330
C
100
AcDbDictionary
  0
DICTIONARY
  5
19
102
{ACAD_REACTORS
330
C
102
}
330
C
100
AcDbDictionary
  0
DICTIONARY
  5
16
102
{ACAD_REACTORS
330
C
102
}
330
C
100
AcDbDictionary
  3
STANDARD
350
17
  0
DICTIONARY
  5
18
102
{ACAD_REACTORS
330
C
102
}
330
C
100
AcDbDictionary
  0
ACDBDICTIONARYWDFLT
  5
E
102
{ACAD_REACTORS
330
C
102
}
330
C
100
AcDbDictionary
281
     1
  3
Normal
350
F
100
AcDbDictionaryWithDefault
340
F
  0
DICTIONARY
  5
2CC
102
{ACAD_REACTORS
330
C
102
}
330
C
100
AcDbDictionary
  3
CEPSNTYPE
350
2D6
  3
DIMSTYLEDATA
350
2DA
  3
FINGERPRINTGUID
350
2D7
  3
HYPERLINKBASE
350
2CF
  3
INSUNITS
350
2D5
  3
LAYOUTDICT
350
2D1
  3
LWETCUNION
350
2D4
  3
PLOTSETDICT
350
2D2
  3
PLOTSTYLNAMDICT
350
2D3
  3
PSVPSCALE
350
2D9
  3
PUCSBASE
350
2DD
  3
PUCSORGBACK
350
2E3
  3
PUCSORGBOTTOM
350
2DF
  3
PUCSORGFRONT
350
2E2
  3
PUCSORGLEFT
350
2E0
  3
PUCSORGRIGHT
350
2E1
  3
PUCSORGTOP
350
2DE
  3
PUCSORTHOREF
350
2DB
  3
PUCSORTHOVIEW
350
2DC
  3
STYLESHEET
350
2D0
  3
TSTACKALIGN
350
2CD
  3
TSTACKSIZE
350
2CE
  3
UCSBASE
350
2E6
  3
UCSORGBACK
350
2EC
  3
UCSORGBOTTOM
350
2E8
  3
UCSORGFRONT
350
2EB
  3
UCSORGLEFT
350
2E9
  3
UCSORGRIGHT
350
2EA
  3
UCSORGTOP
350
2E7
  3
UCSORTHOREF
350
2E4
  3
UCSORTHOVIEW
350
2E5
  3
VERSIONGUID
350
2D8
  0
XRECORD
  5
2F0
102
{ACAD_REACTORS
330
2EF
102
}
330
2EF
100
AcDbXrecord
340
1E
  0
XRECORD
  5
2EE
102
{ACAD_REACTORS
330
2ED
102
}
330
2ED
100
AcDbXrecord
340
1A
  0
MLINESTYLE
  5
17
102
{ACAD_REACTORS
330
16
102
}
330
16
100
AcDbMlineStyle
  2
STANDARD
 70
     0
  3

 62
   256
 51
90.0
 52
90.0
 71
     2
 49
0.5
 62
   256
  6
BYLAYER
 49
-0.5
 62
   256
  6
BYLAYER
  0
ACDBPLACEHOLDER
  5
F
102
{ACAD_REACTORS
330
E
102
}
330
E
100
AcDbPlaceHolder
280
     0
  0
XRECORD
  5
2D6
102
{ACAD_REACTORS
330
2CC
102
}
330
2CC
100
AcDbXrecord
 90
        0
  0
XRECORD
  5
2DA
102
{ACAD_REACTORS
330
2CC
102
}
330
2CC
100
AcDbXrecord
1000
DSTYLE
1002
{
1070
   341
340
39
1070
   342
340
39
1070
   343
340
39
1070
   344
340
34
1002
}
  0
XRECORD
  5
2D7
102
{ACAD_REACTORS
330
2CC
102
}
330
2CC
100
AcDbXrecord
  1
{4177AC7D-993B-4B67-9538-9EE30E0CF522}
  0
XRECORD
  5
2CF
102
{ACAD_REACTORS
330
2CC
102
}
330
2CC
100
AcDbXrecord
  1

  0
XRECORD
  5
2D5
102
{ACAD_REACTORS
330
2CC
102
}
330
2CC
100
AcDbXrecord
 90
        0
  0
XRECORD
  5
2D1
102
{ACAD_REACTORS
330
2CC
102
}
330
2CC
100
AcDbXrecord
340
19
  0
XRECORD
  5
2D4
102
{ACAD_REACTORS
330
2CC
102
}
330
2CC
100
AcDbXrecord
 90
    10781
  0
XRECORD
  5
2D2
102
{ACAD_REACTORS
330
2CC
102
}
330
2CC
100
AcDbXrecord
340
18
  0
XRECORD
  5
2D3
102
{ACAD_REACTORS
330
2CC
102
}
330
2CC
100
AcDbXrecord
340
E
  0
XRECORD
  5
2D9
102
{ACAD_REACTORS
330
2CC
102
}
330
2CC
100
AcDbXrecord
 40
0.0
  0
XRECORD
  5
2DD
102
{ACAD_REACTORS
330
2CC
102
}
330
2CC
100
AcDbXrecord
340
0
  0
XRECORD
  5
2E3
102
{ACAD_REACTORS
330
2CC
102
}
330
2CC
100
AcDbXrecord
 10
0.0
 20
0.0
 30
0.0
  0
XRECORD
  5
2DF
102
{ACAD_REACTORS
330
2CC
102
}
330
2CC
100
AcDbXrecord
 10
0.0
 20
0.0
 30
0.0
  0
XRECORD
  5
2E2
102
{ACAD_REACTORS
330
2CC
102
}
330
2CC
100
AcDbXrecord
 10
0.0
 20
0.0
 30
0.0
  0
XRECORD
  5
2E0
102
{ACAD_REACTORS
330
2CC
102
}
330
2CC
100
AcDbXrecord
 10
0.0
 20
0.0
 30
0.0
  0
XRECORD
  5
2E1
102
{ACAD_REACTORS
330
2CC
102
}
330
2CC
100
AcDbXrecord
 10
0.0
 20
0.0
 30
0.0
  0
XRECORD
  5
2DE
102
{ACAD_REACTORS
330
2CC
102
}
330
2CC
100
AcDbXrecord
 10
0.0
 20
0.0
 30
0.0
  0
XRECORD
  5
2DB
102
{ACAD_REACTORS
330
2CC
102
}
330
2CC
100
AcDbXrecord
340
0
  0
XRECORD
  5
2DC
102
{ACAD_REACTORS
330
2CC
102
}
330
2CC
100
AcDbXrecord
 70
     0
  0
XRECORD
  5
2D0
102
{ACAD_REACTORS
330
2CC
102
}
330
2CC
100
AcDbXrecord
  1

  0
XRECORD
  5
2CD
102
{ACAD_REACTORS
330
2CC
102
}
330
2CC
100
AcDbXrecord
 90
        1
  0
XRECORD
  5
2CE
102
{ACAD_REACTORS
330
2CC
102
}
330
2CC
100
AcDbXrecord
 90
       70
  0
XRECORD
  5
2E6
102
{ACAD_REACTORS
330
2CC
102
}
330
2CC
100
AcDbXrecord
340
0
  0
XRECORD
  5
2EC
102
{ACAD_REACTORS
330
2CC
102
}
330
2CC
100
AcDbXrecord
 10
0.0
 20
0.0
 30
0.0
  0
XRECORD
  5
2E8
102
{ACAD_REACTORS
330
2CC
102
}
330
2CC
100
AcDbXrecord
 10
0.0
 20
0.0
 30
0.0
  0
XRECORD
  5
2EB
102
{ACAD_REACTORS
330
2CC
102
}
330
2CC
100
AcDbXrecord
 10
0.0
 20
0.0
 30
0.0
  0
XRECORD
  5
2E9
102
{ACAD_REACTORS
330
2CC
102
}
330
2CC
100
AcDbXrecord
 10
0.0
 20
0.0
 30
0.0
  0
XRECORD
  5
2EA
102
{ACAD_REACTORS
330
2CC
102
}
330
2CC
100
AcDbXrecord
 10
0.0
 20
0.0
 30
0.0
  0
XRECORD
  5
2E7
102
{ACAD_REACTORS
330
2CC
102
}
330
2CC
100
AcDbXrecord
 10
0.0
 20
0.0
 30
0.0
  0
XRECORD
  5
2E4
102
{ACAD_REACTORS
330
2CC
102
}
330
2CC
100
AcDbXrecord
340
0
  0
XRECORD
  5
2E5
102
{ACAD_REACTORS
330
2CC
102
}
330
2CC
100
AcDbXrecord
 70
     0
  0
XRECORD
  5
2D8
102
{ACAD_REACTORS
330
2CC
102
}
330
2CC
100
AcDbXrecord
  1
{70450FD3-A39F-4DF9-821F-53DA31C4EDB5}
  0
ENDSEC
  0
EOF
