  0
SECTION
  2
HEADER
  9
$ACADVER
  1
AC1014
  9
$ACADMAINTVER
 70
     9
  9
$DWGCODEPAGE
  3
ANSI_932
  9
$INSBASE
 10
0.0
 20
0.0
 30
0.0
  9
$EXTMIN
 10
-1377.827487815826
 20
-736.8342382170793
 30
0.0
  9
$EXTMAX
 10
2801.698685213687
 20
1316.054167374879
 30
0.0
  9
$LIMMIN
 10
-4200.0
 20
-2970.0
  9
$LIMMAX
 10
4200.0
 20
2970.0
  9
$ORTHOMODE
 70
     0
  9
$REGENMODE
 70
     1
  9
$FILLMODE
 70
     1
  9
$QTEXTMODE
 70
     0
  9
$MIRRTEXT
 70
     0
  9
$DRAGMODE
 70
     2
  9
$LTSCALE
 40
20.0
  9
$OSMODE
 70
    37
  9
$ATTMODE
 70
     1
  9
$TEXTSIZE
 40
64.0
  9
$TRACEWID
 40
0.05
  9
$TEXTSTYLE
  7
STANDARD
  9
$CLAYER
  8
0
  9
$CELTYPE
  6
CONTINUOUS
  9
$CECOLOR
 62
     7
  9
$CELTSCALE
 40
1.0
  9
$DELOBJ
 70
     1
  9
$DISPSILH
 70
     0
  9
$DIMSCALE
 40
1.0
  9
$DIMASZ
 40
10.0
  9
$DIMEXO
 40
20.0
  9
$DIMDLI
 40
200.0
  9
$DIMRND
 40
0.0
  9
$DIMDLE
 40
0.0
  9
$DIMEXE
 40
30.0
  9
$DIMTP
 40
0.0
  9
$DIMTM
 40
0.0
  9
$DIMTXT
 40
64.0
  9
$DIMCEN
 40
0.0
  9
$DIMTSZ
 40
0.0
  9
$DIMTOL
 70
     0
  9
$DIMLIM
 70
     0
  9
$DIMTIH
 70
     0
  9
$DIMTOH
 70
     0
  9
$DIMSE1
 70
     0
  9
$DIMSE2
 70
     0
  9
$DIMTAD
 70
     1
  9
$DIMZIN
 70
     8
  9
$DIMBLK
  1
DOTBLANK
  9
$DIMASO
 70
     1
  9
$DIMSHO
 70
     0
  9
$DIMPOST
  1

  9
$DIMAPOST
  1

  9
$DIMALT
 70
     0
  9
$DIMALTD
 70
     2
  9
$DIMALTF
 40
25.4
  9
$DIMLFAC
 40
1.0
  9
$DIMTOFL
 70
     1
  9
$DIMTVP
 40
0.0
  9
$DIMTIX
 70
     1
  9
$DIMSOXD
 70
     0
  9
$DIMSAH
 70
     0
  9
$DIMBLK1
  1
DOTBLANK
  9
$DIMBLK2
  1
ORIGIN
  9
$DIMSTYLE
  2
STANDARD
  9
$DIMCLRD
 70
     0
  9
$DIMCLRE
 70
     0
  9
$DIMCLRT
 70
     0
  9
$DIMTFAC
 40
1.0
  9
$DIMGAP
 40
0.09
  9
$DIMJUST
 70
     0
  9
$DIMSD1
 70
     0
  9
$DIMSD2
 70
     0
  9
$DIMTOLJ
 70
     1
  9
$DIMTZIN
 70
     0
  9
$DIMALTZ
 70
     0
  9
$DIMALTTZ
 70
     0
  9
$DIMFIT
 70
     3
  9
$DIMUPT
 70
     0
  9
$DIMUNIT
 70
     2
  9
$DIMDEC
 70
     4
  9
$DIMTDEC
 70
     4
  9
$DIMALTU
 70
     2
  9
$DIMALTTD
 70
     2
  9
$DIMTXSTY
  7
STANDARD
  9
$DIMAUNIT
 70
     0
  9
$LUNITS
 70
     2
  9
$LUPREC
 70
     4
  9
$SKETCHINC
 40
0.1
  9
$FILLETRAD
 40
0.0
  9
$AUNITS
 70
     1
  9
$AUPREC
 70
     3
  9
$MENU
  1
ACAD
  9
$ELEVATION
 40
0.0
  9
$PELEVATION
 40
0.0
  9
$THICKNESS
 40
0.0
  9
$LIMCHECK
 70
     0
  9
$BLIPMODE
 70
     0
  9
$CHAMFERA
 40
0.0
  9
$CHAMFERB
 40
0.0
  9
$CHAMFERC
 40
0.0
  9
$CHAMFERD
 40
0.0
  9
$SKPOLY
 70
     0
  9
$TDCREATE
 40
2449761.493622685
  9
$TDUPDATE
 40
2453973.712821979
  9
$TDINDWG
 40
1.0293134028
  9
$TDUSRTIMER
 40
1.0293132176
  9
$USRTIMER
 70
     1
  9
$ANGBASE
 50
0.0
  9
$ANGDIR
 70
     0
  9
$PDMODE
 70
    35
  9
$PDSIZE
 40
100.0
  9
$PLINEWID
 40
0.0
  9
$COORDS
 70
     2
  9
$SPLFRAME
 70
     0
  9
$SPLINETYPE
 70
     6
  9
$SPLINESEGS
 70
     8
  9
$ATTDIA
 70
     0
  9
$ATTREQ
 70
     1
  9
$HANDLING
 70
-16383
  9
$HANDSEED
  5
23E
  9
$SURFTAB1
 70
     6
  9
$SURFTAB2
 70
     6
  9
$SURFTYPE
 70
     6
  9
$SURFU
 70
     6
  9
$SURFV
 70
     6
  9
$UCSNAME
  2

  9
$UCSORG
 10
0.0
 20
0.0
 30
0.0
  9
$UCSXDIR
 10
1.0
 20
0.0
 30
0.0
  9
$UCSYDIR
 10
0.0
 20
1.0
 30
0.0
  9
$PUCSNAME
  2

  9
$PUCSORG
 10
0.0
 20
0.0
 30
0.0
  9
$PUCSXDIR
 10
1.0
 20
0.0
 30
0.0
  9
$PUCSYDIR
 10
0.0
 20
1.0
 30
0.0
  9
$USERI1
 70
     0
  9
$USERI2
 70
     0
  9
$USERI3
 70
     0
  9
$USERI4
 70
     0
  9
$USERI5
 70
     0
  9
$USERR1
 40
20.0
  9
$USERR2
 40
0.0
  9
$USERR3
 40
0.0
  9
$USERR4
 40
0.0
  9
$USERR5
 40
0.0
  9
$WORLDVIEW
 70
     1
  9
$SHADEDGE
 70
     3
  9
$SHADEDIF
 70
    70
  9
$TILEMODE
 70
     1
  9
$MAXACTVP
 70
    64
  9
$PINSBASE
 10
0.0
 20
0.0
 30
0.0
  9
$PLIMCHECK
 70
     0
  9
$PEXTMIN
 10
1.000000000000000E+20
 20
1.000000000000000E+20
 30
1.000000000000000E+20
  9
$PEXTMAX
 10
-1.000000000000000E+20
 20
-1.000000000000000E+20
 30
-1.000000000000000E+20
  9
$PLIMMIN
 10
0.0
 20
0.0
  9
$PLIMMAX
 10
12.0
 20
9.0
  9
$UNITMODE
 70
     0
  9
$VISRETAIN
 70
     1
  9
$PLINEGEN
 70
     0
  9
$PSLTSCALE
 70
     1
  9
$TREEDEPTH
 70
  3020
  9
$PICKSTYLE
 70
     0
  9
$CMLSTYLE
  2
STANDARD
  9
$CMLJUST
 70
     0
  9
$CMLSCALE
 40
1.0
  9
$PROXYGRAPHICS
 70
     1
  9
$MEASUREMENT
 70
     0
  0
ENDSEC
  0
SECTION
  2
CLASSES
  0
CLASS
  1
ACDBDICTIONARYWDFLT
  2
AcDbDictionaryWithDefault
  3
AutoCAD 2000
 90
        0
280
     0
281
     0
  0
CLASS
  1
ACDBPLACEHOLDER
  2
AcDbPlaceHolder
  3
AutoCAD 2000
 90
        0
280
     0
281
     0
  0
CLASS
  1
LAYOUT
  2
AcDbLayout
  3
AutoCAD 2000
 90
        0
280
     0
281
     0
  0
CLASS
  1
LONG_TRANSACTION
  2
AcDbLongTransaction
  3
AutoCAD 2000
 90
        0
280
     0
281
     0
  0
CLASS
  1
LWPOLYLINE
  2
AcDbPolyline
  3
AutoCAD 2000
 90
        0
280
     0
281
     1
  0
CLASS
  1
HATCH
  2
AcDbHatch
  3
AutoCAD 2000
 90
        0
280
     0
281
     1
  0
CLASS
  1
XRECORD
  2
AcDbXrecord
  3
AutoCAD 2000
 90
        0
280
     0
281
     0
  0
ENDSEC
  0
SECTION
  2
TABLES
  0
TABLE
  2
VPORT
  5
8
330
0
100
AcDbSymbolTable
 70
     2
  0
VPORT
  5
218
330
8
100
AcDbSymbolTableRecord
100
AcDbViewportTableRecord
  2
*ACTIVE
 70
     0
 10
0.0
 20
0.0
 11
1.0
 21
1.0
 12
854.2085258111811
 22
289.6063394287448
 13
0.0
 23
0.0
 14
50.0
 24
50.0
 15
100.0
 25
100.0
 16
0.0
 26
0.0
 36
1.0
 17
0.0
 27
0.0
 37
0.0
 40
2706.213323707251
 41
1.657997399219765
 42
50.0
 43
0.0
 44
0.0
 50
0.0
 51
0.0
 71
     0
 72
  1000
 73
     1
 74
     0
 75
     0
 76
     0
 77
     0
 78
     0
  0
ENDTAB
  0
TABLE
  2
LTYPE
  5
5
330
0
100
AcDbSymbolTable
 70
     2
  0
LTYPE
  5
13
330
5
100
AcDbSymbolTableRecord
100
AcDbLinetypeTableRecord
  2
BYBLOCK
 70
     0
  3

 72
    65
 73
     0
 40
0.0
  0
LTYPE
  5
14
330
5
100
AcDbSymbolTableRecord
100
AcDbLinetypeTableRecord
  2
BYLAYER
 70
     0
  3

 72
    65
 73
     0
 40
0.0
  0
LTYPE
  5
15
330
5
100
AcDbSymbolTableRecord
100
AcDbLinetypeTableRecord
  2
CONTINUOUS
 70
     0
  3
????
 72
    65
 73
     0
 40
0.0
  0
LTYPE
  5
22
330
5
100
AcDbSymbolTableRecord
100
AcDbLinetypeTableRecord
  2
DASHDOT
 70
     0
  3
____ _ ____ _ ____ _ ____ _ ____ _ ____ _ ____
 72
    65
 73
     4
 40
5.5
 49
4.0
 74
     0
 49
-0.6
 74
     0
 49
0.3
 74
     0
 49
-0.6
 74
     0
  0
ENDTAB
  0
TABLE
  2
LAYER
  5
2
330
0
100
AcDbSymbolTable
 70
    12
  0
LAYER
  5
10
330
2
100
AcDbSymbolTableRecord
100
AcDbLayerTableRecord
  2
0
 70
     0
 62
     7
  6
CONTINUOUS
  0
LAYER
  5
23
330
2
100
AcDbSymbolTableRecord
100
AcDbLayerTableRecord
  2
OUTLINE
 70
     0
 62
     3
  6
CONTINUOUS
  0
LAYER
  5
24
330
2
100
AcDbSymbolTableRecord
100
AcDbLayerTableRecord
  2
DETAIL
 70
     0
 62
     5
  6
CONTINUOUS
  0
LAYER
  5
25
330
2
100
AcDbSymbolTableRecord
100
AcDbLayerTableRecord
  2
BASIS
 70
     0
 62
     6
  6
DASHDOT
  0
LAYER
  5
26
330
2
100
AcDbSymbolTableRecord
100
AcDbLayerTableRecord
  2
SIZE
 70
     0
 62
    30
  6
CONTINUOUS
  0
LAYER
  5
27
330
2
100
AcDbSymbolTableRecord
100
AcDbLayerTableRecord
  2
NOTE
 70
     0
 62
     4
  6
CONTINUOUS
  0
LAYER
  5
28
330
2
100
AcDbSymbolTableRecord
100
AcDbLayerTableRecord
  2
ARRANGE
 70
     0
 62
     1
  6
CONTINUOUS
  0
LAYER
  5
29
330
2
100
AcDbSymbolTableRecord
100
AcDbLayerTableRecord
  2
FIX
 70
     0
 62
    11
  6
CONTINUOUS
  0
LAYER
  5
2A
330
2
100
AcDbSymbolTableRecord
100
AcDbLayerTableRecord
  2
SERVICESPACE
 70
     0
 62
     2
  6
DASHDOT
  0
LAYER
  5
2B
330
2
100
AcDbSymbolTableRecord
100
AcDbLayerTableRecord
  2
ETC
 70
     0
 62
    61
  6
CONTINUOUS
  0
LAYER
  5
2C
330
2
100
AcDbSymbolTableRecord
100
AcDbLayerTableRecord
  2
SYMBOLLINE
 70
     0
 62
    15
  6
CONTINUOUS
  0
LAYER
  5
2D
330
2
100
AcDbSymbolTableRecord
100
AcDbLayerTableRecord
  2
DEFPOINTS
 70
     0
 62
     7
  6
CONTINUOUS
  0
ENDTAB
  0
TABLE
  2
STYLE
  5
3
330
0
100
AcDbSymbolTable
 70
     2
  0
STYLE
  5
11
330
3
100
AcDbSymbolTableRecord
100
AcDbTextStyleTableRecord
  2
STANDARD
 70
     0
 40
0.0
 41
0.9
 50
0.0
 71
     0
 42
64.0
  3
SIMPLEX
  4
BIGFONT
  0
STYLE
  5
2E
330
3
100
AcDbSymbolTableRecord
100
AcDbTextStyleTableRecord
  2
STANDARD1
 70
     0
 40
0.0
 41
1.0
 50
0.0
 71
     0
 42
64.0
  3
MONOTXT
  4
BIGFONT
  0
ENDTAB
  0
TABLE
  2
VIEW
  5
6
330
0
100
AcDbSymbolTable
 70
     1
  0
VIEW
  5
2F
330
6
100
AcDbSymbolTableRecord
100
AcDbViewTableRecord
  2
ALL
 70
     0
 40
6056.230032000001
 10
0.0
 20
58.11501599999999
 41
8400.0
 11
0.0
 21
0.0
 31
1.0
 12
0.0
 22
0.0
 32
0.0
 42
50.0
 43
0.0
 44
0.0
 50
0.0
 71
     0
  0
ENDTAB
  0
TABLE
  2
UCS
  5
7
330
0
100
AcDbSymbolTable
 70
     0
  0
ENDTAB
  0
TABLE
  2
APPID
  5
9
330
0
100
AcDbSymbolTable
 70
     1
  0
APPID
  5
12
330
9
100
AcDbSymbolTableRecord
100
AcDbRegAppTableRecord
  2
ACAD
 70
     0
  0
ENDTAB
  0
TABLE
  2
DIMSTYLE
  5
A
330
0
100
AcDbSymbolTable
 70
     1
  0
DIMSTYLE
105
217
330
A
100
AcDbSymbolTableRecord
100
AcDbDimStyleTableRecord
  2
STANDARD
 70
     0
  3

  4

  5

  6

  7

 40
1.0
 41
0.18
 42
0.0625
 43
0.38
 44
0.18
 45
0.0
 46
0.0
 47
0.0
 48
0.0
140
0.18
141
0.09
142
0.0
143
25.4
144
1.0
145
0.0
146
1.0
147
0.09
 71
     0
 72
     0
 73
     1
 74
     1
 75
     0
 76
     0
 77
     0
 78
     0
170
     0
171
     2
172
     0
173
     0
174
     0
175
     0
176
     0
177
     0
178
     0
270
     2
271
     4
272
     4
273
     2
274
     2
340
11
275
     0
280
     0
281
     0
282
     0
283
     1
284
     0
285
     0
286
     0
287
     3
288
     0
  0
ENDTAB
  0
TABLE
  2
BLOCK_RECORD
  5
1
330
0
100
AcDbSymbolTable
 70
     2
  0
BLOCK_RECORD
  5
1E
102
{ACAD_XDICTIONARY
360
23C
102
}
330
1
100
AcDbSymbolTableRecord
100
AcDbBlockTableRecord
  2
*MODEL_SPACE
  0
BLOCK_RECORD
  5
1A
102
{ACAD_XDICTIONARY
360
23A
102
}
330
1
100
AcDbSymbolTableRecord
100
AcDbBlockTableRecord
  2
*PAPER_SPACE
  0
BLOCK_RECORD
  5
34
330
1
100
AcDbSymbolTableRecord
100
AcDbBlockTableRecord
  2
_ORIGIN
  0
BLOCK_RECORD
  5
39
330
1
100
AcDbSymbolTableRecord
100
AcDbBlockTableRecord
  2
_DOTBLANK
  0
ENDTAB
  0
ENDSEC
  0
SECTION
  2
BLOCKS
  0
BLOCK
  5
1F
330
1E
100
AcDbEntity
  8
0
100
AcDbBlockBegin
  2
*MODEL_SPACE
 70
     0
 10
0.0
 20
0.0
 30
0.0
  3
*MODEL_SPACE
  1

  0
ENDBLK
  5
20
330
1E
100
AcDbEntity
  8
0
100
AcDbBlockEnd
  0
BLOCK
  5
1B
330
1A
100
AcDbEntity
 67
     1
  8
0
100
AcDbBlockBegin
  2
*PAPER_SPACE
 70
     0
 10
0.0
 20
0.0
 30
0.0
  3
*PAPER_SPACE
  1

  0
ENDBLK
  5
1C
330
1A
100
AcDbEntity
 67
     1
  8
0
100
AcDbBlockEnd
  0
BLOCK
  5
35
330
34
100
AcDbEntity
  8
0
100
AcDbBlockBegin
  2
_ORIGIN
 70
     0
 10
0.0
 20
0.0
 30
0.0
  3
_ORIGIN
  1

  0
CIRCLE
  5
36
330
34
100
AcDbEntity
  8
0
  6
CONTINUOUS
 62
     7
100
AcDbCircle
 10
0.0
 20
0.0
 30
0.0
 40
0.5
  0
LINE
  5
37
330
34
100
AcDbEntity
  8
0
  6
CONTINUOUS
 62
     7
100
AcDbLine
 10
-0.5
 20
0.0
 30
0.0
 11
-1.0
 21
0.0
 31
0.0
  0
ENDBLK
  5
38
330
34
100
AcDbEntity
  8
0
100
AcDbBlockEnd
  0
BLOCK
  5
3A
330
39
100
AcDbEntity
  8
0
100
AcDbBlockBegin
  2
_DOTBLANK
 70
     0
 10
0.0
 20
0.0
 30
0.0
  3
_DOTBLANK
  1

  0
CIRCLE
  5
3B
330
39
100
AcDbEntity
  8
0
  6
CONTINUOUS
 62
     7
100
AcDbCircle
 10
0.0
 20
0.0
 30
0.0
 40
0.5
  0
LINE
  5
3C
330
39
100
AcDbEntity
  8
0
  6
CONTINUOUS
 62
     7
100
AcDbLine
 10
-0.5
 20
0.0
 30
0.0
 11
-1.0
 21
0.0
 31
0.0
  0
ENDBLK
  5
3D
330
39
100
AcDbEntity
  8
0
100
AcDbBlockEnd
  0
ENDSEC
  0
SECTION
  2
ENTITIES
  0
TEXT
  5
3E
330
1E
100
AcDbEntity
  8
0
  6
CONTINUOUS
 62
     7
100
AcDbText
 10
12761.29
 20
1934.172
 30
0.0
 40
3.2
  1
 
 50
0.000003
 41
0.5989580000000001
  7
STANDARD1
100
AcDbText
  0
LINE
  5
3F
330
1E
100
AcDbEntity
  8
DETAIL
  6
CONTINUOUS
 62
     5
100
AcDbLine
 10
472.999999999998
 20
338.0
 30
0.0
 11
-473.0000000000008
 21
337.999999999999
 31
0.0
  0
CIRCLE
  5
40
330
1E
100
AcDbEntity
  8
ARRANGE
  6
CONTINUOUS
 62
     1
100
AcDbCircle
 10
0.0
 20
-0.0000000000004547
 30
0.0
 40
40.0
  0
LINE
  5
41
330
1E
100
AcDbEntity
  8
DETAIL
  6
CONTINUOUS
 62
     5
100
AcDbLine
 10
-473.0000000000008
 20
47.99999999999863
 30
0.0
 11
472.999999999998
 21
48.0
 31
0.0
  0
LINE
  5
42
330
1E
100
AcDbEntity
  8
DETAIL
  6
CONTINUOUS
 62
     5
100
AcDbLine
 10
592.9999999999989
 20
44.99999999999909
 30
0.0
 11
-593.0000000000007
 21
44.99999999999909
 31
0.0
  0
LINE
  5
43
330
1E
100
AcDbEntity
  8
DETAIL
  6
CONTINUOUS
 62
     5
100
AcDbLine
 10
624.9999999999992
 20
-0.0000000000004547
 30
0.0
 11
-625.0
 21
-0.0000000000004547
 31
0.0
  0
LINE
  5
44
330
1E
100
AcDbEntity
  8
DETAIL
  6
CONTINUOUS
 62
     5
100
AcDbLine
 10
617.9999999999989
 20
-8.000000000000454
 30
0.0
 11
-618.0
 21
-8.000000000000454
 31
0.0
  0
POINT
  5
45
330
1E
100
AcDbEntity
  8
ARRANGE
  6
CONTINUOUS
 62
     1
100
AcDbPoint
 10
0.0
 20
-0.0000000000004547
 30
0.0
  0
LINE
  5
46
330
1E
100
AcDbEntity
  8
DETAIL
  6
CONTINUOUS
 62
     5
100
AcDbLine
 10
-593.0
 20
44.99999999999952
 30
0.0
 11
-593.0
 21
-0.0000000000004547
 31
0.0
  0
LINE
  5
47
330
1E
100
AcDbEntity
  8
BASIS
  6
DASHDOT
 62
     6
100
AcDbLine
 10
0.0
 20
395.8640659999996
 30
0.0
 11
0.0
 21
-76.4181970000004
 31
0.0
  0
ARC
  5
48
330
1E
100
AcDbEntity
  8
DETAIL
  6
CONTINUOUS
 62
     5
100
AcDbCircle
 10
-618.0
 20
-1.000000000000454
 30
0.0
 40
7.0
100
AcDbArc
 50
180.0
 51
270.0
  0
LINE
  5
49
330
1E
100
AcDbEntity
  8
DETAIL
  6
CONTINUOUS
 62
     5
100
AcDbLine
 10
-625.0
 20
-1.000000000000454
 30
0.0
 11
-625.0
 21
-0.0000000000004547
 31
0.0
  0
LINE
  5
4A
330
1E
100
AcDbEntity
  8
DETAIL
  6
CONTINUOUS
 62
     5
100
AcDbLine
 10
-473.0000000000017
 20
337.9999999999995
 30
0.0
 11
-473.0000000000017
 21
44.99999999999952
 31
0.0
  0
CIRCLE
  5
4B
330
1E
100
AcDbEntity
  8
FIX
  6
CONTINUOUS
 62
    11
100
AcDbCircle
 10
-497.0
 20
147.9999999999994
 30
0.0
 40
20.0
  0
LINE
  5
4C
330
1E
100
AcDbEntity
  8
NOTE
  6
CONTINUOUS
 62
     4
100
AcDbLine
 10
-477.0
 20
147.9999999999994
 30
0.0
 11
-517.0
 21
147.9999999999994
 31
0.0
  0
LWPOLYLINE
  5
4D
330
1E
100
AcDbEntity
  8
NOTE
  6
CONTINUOUS
 62
     4
100
AcDbPolyline
 90
        3
 70
     0
 43
0.0
 10
-504.6983773379134
 20
187.2521972717181
 10
-497.0
 20
147.9999999999994
 10
-523.2930889879862
 20
178.1442115709683
  0
LINE
  5
52
330
1E
100
AcDbEntity
  8
NOTE
  6
CONTINUOUS
 62
     4
100
AcDbLine
 10
-497.0
 20
147.9999999999994
 30
0.0
 11
-711.5672928158272
 21
586.374426736013
 31
0.0
  0
LINE
  5
53
330
1E
100
AcDbEntity
  8
DETAIL
  6
CONTINUOUS
 62
     5
100
AcDbLine
 10
-473.0
 20
147.9999999999994
 30
0.0
 11
-523.0
 21
147.9999999999994
 31
0.0
  0
LINE
  5
54
330
1E
100
AcDbEntity
  8
DETAIL
  6
CONTINUOUS
 62
     5
100
AcDbLine
 10
-523.0
 20
147.9999999999994
 30
0.0
 11
-523.0
 21
145.6999999999998
 31
0.0
  0
LINE
  5
55
330
1E
100
AcDbEntity
  8
NOTE
  6
CONTINUOUS
 62
     4
100
AcDbLine
 10
-497.0
 20
127.9999999999995
 30
0.0
 11
-497.0
 21
167.9999999999994
 31
0.0
  0
LINE
  5
56
330
1E
100
AcDbEntity
  8
NOTE
  6
CONTINUOUS
 62
     4
100
AcDbLine
 10
586.999999999998
 20
212.9999999999991
 30
0.0
 11
973.9036829999982
 21
-148.3351450000008
 31
0.0
  0
LINE
  5
57
330
1E
100
AcDbEntity
  8
NOTE
  6
CONTINUOUS
 62
     4
100
AcDbLine
 10
502.999999999998
 20
71.99999999999909
 30
0.0
 11
917.4512243207558
 21
-575.3321279044647
 31
0.0
  0
LINE
  5
58
330
1E
100
AcDbEntity
  8
DETAIL
  6
CONTINUOUS
 62
     5
100
AcDbLine
 10
592.9999999999989
 20
44.99999999999909
 30
0.0
 11
592.9999999999989
 21
-0.0000000000009095
 31
0.0
  0
LINE
  5
59
330
1E
100
AcDbEntity
  8
NOTE
  6
CONTINUOUS
 62
     4
100
AcDbLine
 10
917.4512243207558
 20
-575.3321279044647
 30
0.0
 11
1095.442963320756
 21
-575.3321279044647
 31
0.0
  0
ARC
  5
5A
330
1E
100
AcDbEntity
  8
DETAIL
  6
CONTINUOUS
 62
     5
100
AcDbCircle
 10
617.9999999999989
 20
-1.000000000000909
 30
0.0
 40
7.0
100
AcDbArc
 50
270.0
 51
0.0
  0
LINE
  5
5B
330
1E
100
AcDbEntity
  8
DETAIL
  6
CONTINUOUS
 62
     5
100
AcDbLine
 10
624.9999999999992
 20
-0.0000000000009095
 30
0.0
 11
624.9999999999992
 21
-1.000000000000909
 31
0.0
  0
LINE
  5
5C
330
1E
100
AcDbEntity
  8
NOTE
  6
CONTINUOUS
 62
     4
100
AcDbLine
 10
973.9036829999982
 20
-148.3351450000008
 30
0.0
 11
1271.678999999998
 21
-148.3351450000008
 31
0.0
  0
TEXT
  5
5D
330
1E
100
AcDbEntity
  8
NOTE
  6
CONTINUOUS
 62
     4
100
AcDbText
 10
1009.493665910474
 20
-122.0872162825848
 30
0.0
 40
64.0
  1
CL,EL
 41
0.9
100
AcDbText
  0
TEXT
  5
5E
330
1E
100
AcDbEntity
  8
NOTE
  6
CONTINUOUS
 62
     4
100
AcDbText
 10
953.5946023207561
 20
-551.9962529044651
 30
0.0
 40
64.0
  1
D2
 41
0.9
100
AcDbText
  0
LINE
  5
5F
330
1E
100
AcDbEntity
  8
NOTE
  6
CONTINUOUS
 62
     4
100
AcDbLine
 10
539.999999999998
 20
215.9999999999994
 30
0.0
 11
992.6977658081492
 21
583.7848652465031
 31
0.0
  0
LINE
  5
60
330
1E
100
AcDbEntity
  8
NOTE
  6
CONTINUOUS
 62
     4
100
AcDbLine
 10
545.9999999999982
 20
215.9999999999989
 30
0.0
 11
1042.757627535491
 21
-367.5340543476385
 31
0.0
  0
TEXT
  5
61
330
1E
100
AcDbEntity
  8
NOTE
  6
CONTINUOUS
 62
     4
100
AcDbText
 10
907.8590605253422
 20
806.7951478713139
 30
0.0
 40
64.0
  1
D1 VP-25
 41
0.9
100
AcDbText
  0
LINE
  5
62
330
1E
100
AcDbEntity
  8
NOTE
  6
CONTINUOUS
 62
     4
100
AcDbLine
 10
472.999999999998
 20
277.999999999999
 30
0.0
 11
874.1344389895671
 21
780.786220871314
 31
0.0
  0
LINE
  5
63
330
1E
100
AcDbEntity
  8
NOTE
  6
CONTINUOUS
 62
     4
100
AcDbLine
 10
1349.649250989567
 20
780.786220871314
 30
0.0
 11
874.1344389895671
 21
780.786220871314
 31
0.0
  0
LINE
  5
64
330
1E
100
AcDbEntity
  8
DETAIL
  6
CONTINUOUS
 62
     5
100
AcDbLine
 10
472.999999999998
 20
337.9999999999995
 30
0.0
 11
472.999999999998
 21
44.99999999999952
 31
0.0
  0
LINE
  5
65
330
1E
100
AcDbEntity
  8
NOTE
  6
CONTINUOUS
 62
     4
100
AcDbLine
 10
606.999999999998
 20
212.9999999999991
 30
0.0
 11
566.999999999998
 21
212.9999999999991
 31
0.0
  0
LWPOLYLINE
  5
66
330
1E
100
AcDbEntity
  8
NOTE
  6
CONTINUOUS
 62
     4
100
AcDbPolyline
 90
        3
 70
     0
 43
0.0
 10
607.722488999998
 20
178.786282999999
 10
586.999999999998
 20
212.9999999999991
 10
622.0530609999983
 20
193.7312959999989
  0
LINE
  5
6B
330
1E
100
AcDbEntity
  8
NOTE
  6
CONTINUOUS
 62
     4
100
AcDbLine
 10
586.999999999998
 20
192.9999999999991
 30
0.0
 11
586.999999999998
 21
232.999999999999
 31
0.0
  0
LINE
  5
6C
330
1E
100
AcDbEntity
  8
DETAIL
  6
CONTINUOUS
 62
     5
100
AcDbLine
 10
586.9999999999985
 20
237.9999999999985
 30
0.0
 11
586.999999999998
 21
187.9999999999991
 31
0.0
  0
LINE
  5
6D
330
1E
100
AcDbEntity
  8
DETAIL
  6
CONTINUOUS
 62
     5
100
AcDbLine
 10
472.999999999998
 20
59.49999999999909
 30
0.0
 11
502.999999999998
 21
59.49999999999864
 31
0.0
  0
LINE
  5
6E
330
1E
100
AcDbEntity
  8
DETAIL
  6
CONTINUOUS
 62
     5
100
AcDbLine
 10
472.999999999998
 20
84.49999999999906
 30
0.0
 11
502.999999999998
 21
84.49999999999862
 31
0.0
  0
LINE
  5
6F
330
1E
100
AcDbEntity
  8
NOTE
  6
CONTINUOUS
 62
     4
100
AcDbLine
 10
522.999999999998
 20
71.99999999999909
 30
0.0
 11
482.9999999999982
 21
71.99999999999909
 31
0.0
  0
LINE
  5
70
330
1E
100
AcDbEntity
  8
NOTE
  6
CONTINUOUS
 62
     4
100
AcDbLine
 10
502.999999999998
 20
51.99999999999909
 30
0.0
 11
502.999999999998
 21
91.99999999999908
 31
0.0
  0
LWPOLYLINE
  5
71
330
1E
100
AcDbEntity
  8
NOTE
  6
CONTINUOUS
 62
     4
100
AcDbPolyline
 90
        3
 70
     0
 43
0.0
 10
515.0894404365552
 20
33.87067547728337
 10
502.999999999998
 20
71.99999999999909
 10
532.5344252917434
 20
45.0237566983551
  0
LINE
  5
76
330
1E
100
AcDbEntity
  8
DETAIL
  6
CONTINUOUS
 62
     5
100
AcDbLine
 10
472.999999999998
 20
237.9999999999985
 30
0.0
 11
586.9999999999985
 21
237.9999999999985
 31
0.0
  0
LINE
  5
77
330
1E
100
AcDbEntity
  8
DETAIL
  6
CONTINUOUS
 62
     5
100
AcDbLine
 10
502.999999999998
 20
84.49999999999906
 30
0.0
 11
502.999999999998
 21
59.49999999999909
 31
0.0
  0
CIRCLE
  5
78
330
1E
100
AcDbEntity
  8
FIX
  6
CONTINUOUS
 62
    11
100
AcDbCircle
 10
496.9999999999977
 20
147.9999999999994
 30
0.0
 40
20.0
  0
LINE
  5
79
330
1E
100
AcDbEntity
  8
NOTE
  6
CONTINUOUS
 62
     4
100
AcDbLine
 10
516.9999999999977
 20
147.9999999999994
 30
0.0
 11
476.999999999998
 21
147.9999999999994
 31
0.0
  0
LINE
  5
7A
330
1E
100
AcDbEntity
  8
DETAIL
  6
CONTINUOUS
 62
     5
100
AcDbLine
 10
522.9999999999977
 20
147.9999999999994
 30
0.0
 11
472.999999999998
 21
147.9999999999994
 31
0.0
  0
LINE
  5
7B
330
1E
100
AcDbEntity
  8
NOTE
  6
CONTINUOUS
 62
     4
100
AcDbLine
 10
496.9999999999977
 20
127.9999999999995
 30
0.0
 11
496.9999999999977
 21
167.9999999999994
 31
0.0
  0
LINE
  5
7C
330
1E
100
AcDbEntity
  8
NOTE
  6
CONTINUOUS
 62
     4
100
AcDbLine
 10
565.999999999998
 20
215.9999999999994
 30
0.0
 11
525.9999999999982
 21
215.9999999999994
 31
0.0
  0
LINE
  5
7D
330
1E
100
AcDbEntity
  8
NOTE
  6
CONTINUOUS
 62
     4
100
AcDbLine
 10
545.9999999999982
 20
195.9999999999994
 30
0.0
 11
545.9999999999982
 21
235.9999999999994
 31
0.0
  0
LINE
  5
7E
330
1E
100
AcDbEntity
  8
NOTE
  6
CONTINUOUS
 62
     4
100
AcDbLine
 10
559.999999999998
 20
215.9999999999994
 30
0.0
 11
519.999999999998
 21
215.9999999999994
 31
0.0
  0
LINE
  5
7F
330
1E
100
AcDbEntity
  8
NOTE
  6
CONTINUOUS
 62
     4
100
AcDbLine
 10
539.999999999998
 20
195.9999999999994
 30
0.0
 11
539.999999999998
 21
235.9999999999994
 31
0.0
  0
LWPOLYLINE
  5
80
330
1E
100
AcDbEntity
  8
NOTE
  6
CONTINUOUS
 62
     4
100
AcDbPolyline
 90
        3
 70
     0
 43
0.0
 10
576.4872907671905
 20
232.3913885633436
 10
539.999999999998
 20
215.9999999999994
 10
563.4032267379556
 20
248.4390040129801
  0
LWPOLYLINE
  5
85
330
1E
100
AcDbEntity
  8
NOTE
  6
CONTINUOUS
 62
     4
100
AcDbPolyline
 90
        3
 70
     0
 43
0.0
 10
563.2066891758824
 20
179.8900313014081
 10
545.9999999999982
 20
215.9999999999989
 10
578.9564139115323
 20
193.3311940682191
  0
LINE
  5
8A
330
1E
100
AcDbEntity
  8
DETAIL
  6
CONTINUOUS
 62
     5
100
AcDbLine
 10
472.999999999998
 20
156.0799999999994
 30
0.0
 11
586.9999999999985
 21
187.9999999999994
 31
0.0
  0
LINE
  5
8B
330
1E
100
AcDbEntity
  8
DETAIL
  6
CONTINUOUS
 62
     5
100
AcDbLine
 10
522.9999999999977
 20
147.9999999999994
 30
0.0
 11
522.9999999999977
 21
145.6999999999998
 31
0.0
  0
LWPOLYLINE
  5
8C
330
1E
100
AcDbEntity
  8
NOTE
  6
CONTINUOUS
 62
     4
100
AcDbPolyline
 90
        3
 70
     0
 43
0.0
 10
505.0006281124092
 20
301.9991628875327
 10
472.999999999998
 20
277.999999999999
 10
488.7137755867806
 20
314.7841982622899
  0
TEXT
  5
91
330
1E
100
AcDbEntity
  8
ETC
  6
CONTINUOUS
 62
    61
100
AcDbText
 10
311.5641032336425
 20
1252.054167374878
 30
0.0
 40
64.0
  1
PLFY-P50VLMD-E_5
 41
0.9
100
AcDbText
  0
LINE
  5
92
330
1E
100
AcDbEntity
  8
SERVICESPACE
  6
DASHDOT
 62
     2
100
AcDbLine
 10
-605.0
 20
-0.0000000000004547
 30
0.0
 11
-665.0
 21
-0.0000000000004547
 31
0.0
  0
LINE
  5
93
330
1E
100
AcDbEntity
  8
SERVICESPACE
  6
DASHDOT
 62
     2
100
AcDbLine
 10
-605.0
 20
19.99999999999954
 30
0.0
 11
-665.0
 21
19.99999999999954
 31
0.0
  0
LINE
  5
94
330
1E
100
AcDbEntity
  8
SERVICESPACE
  6
DASHDOT
 62
     2
100
AcDbLine
 10
-605.0
 20
19.99999999999954
 30
0.0
 11
-605.0
 21
-0.0000000000004547
 31
0.0
  0
LINE
  5
95
330
1E
100
AcDbEntity
  8
SERVICESPACE
  6
DASHDOT
 62
     2
100
AcDbLine
 10
664.9999999999992
 20
-0.0000000000004547
 30
0.0
 11
604.999999999999
 21
-0.0000000000004547
 31
0.0
  0
LINE
  5
96
330
1E
100
AcDbEntity
  8
SERVICESPACE
  6
DASHDOT
 62
     2
100
AcDbLine
 10
604.999999999999
 20
19.99999999999954
 30
0.0
 11
604.999999999999
 21
-0.0000000000004547
 31
0.0
  0
LINE
  5
97
330
1E
100
AcDbEntity
  8
SERVICESPACE
  6
DASHDOT
 62
     2
100
AcDbLine
 10
664.9999999999992
 20
19.99999999999954
 30
0.0
 11
604.999999999999
 21
19.99999999999954
 31
0.0
  0
LINE
  5
98
330
1E
100
AcDbEntity
  8
NOTE
  6
CONTINUOUS
 62
     4
100
AcDbLine
 10
-163.0000000000018
 20
303.9999999999995
 30
0.0
 11
-203.0000000000017
 21
303.9999999999995
 31
0.0
  0
LINE
  5
99
330
1E
100
AcDbEntity
  8
NOTE
  6
CONTINUOUS
 62
     4
100
AcDbLine
 10
-183.0000000000017
 20
283.9999999999994
 30
0.0
 11
-183.0000000000017
 21
323.9999999999994
 31
0.0
  0
LINE
  5
9A
330
1E
100
AcDbEntity
  8
NOTE
  6
CONTINUOUS
 62
     4
100
AcDbLine
 10
54.49999999999818
 20
303.9999999999995
 30
0.0
 11
14.49999999999818
 21
303.9999999999995
 31
0.0
  0
LINE
  5
9B
330
1E
100
AcDbEntity
  8
NOTE
  6
CONTINUOUS
 62
     4
100
AcDbLine
 10
34.49999999999818
 20
283.9999999999994
 30
0.0
 11
34.49999999999818
 21
323.9999999999994
 31
0.0
  0
LINE
  5
9C
330
1E
100
AcDbEntity
  8
NOTE
  6
CONTINUOUS
 62
     4
100
AcDbLine
 10
251.999999999998
 20
283.9999999999994
 30
0.0
 11
251.999999999998
 21
323.9999999999994
 31
0.0
  0
LINE
  5
9D
330
1E
100
AcDbEntity
  8
NOTE
  6
CONTINUOUS
 62
     4
100
AcDbLine
 10
271.999999999998
 20
303.9999999999995
 30
0.0
 11
231.9999999999982
 21
303.9999999999995
 31
0.0
  0
LINE
  5
9E
330
1E
100
AcDbEntity
  8
NOTE
  6
CONTINUOUS
 62
     4
100
AcDbLine
 10
-163.0000000000018
 20
144.9999999999994
 30
0.0
 11
-203.0000000000017
 21
144.9999999999994
 31
0.0
  0
LINE
  5
9F
330
1E
100
AcDbEntity
  8
NOTE
  6
CONTINUOUS
 62
     4
100
AcDbLine
 10
-183.0000000000017
 20
124.9999999999995
 30
0.0
 11
-183.0000000000017
 21
164.9999999999994
 31
0.0
  0
LINE
  5
A0
330
1E
100
AcDbEntity
  8
NOTE
  6
CONTINUOUS
 62
     4
100
AcDbLine
 10
54.49999999999818
 20
144.9999999999994
 30
0.0
 11
14.49999999999818
 21
144.9999999999994
 31
0.0
  0
LINE
  5
A1
330
1E
100
AcDbEntity
  8
NOTE
  6
CONTINUOUS
 62
     4
100
AcDbLine
 10
34.49999999999818
 20
124.9999999999995
 30
0.0
 11
34.49999999999818
 21
164.9999999999994
 31
0.0
  0
LINE
  5
A2
330
1E
100
AcDbEntity
  8
NOTE
  6
CONTINUOUS
 62
     4
100
AcDbLine
 10
251.999999999998
 20
124.9999999999995
 30
0.0
 11
251.999999999998
 21
164.9999999999994
 31
0.0
  0
LINE
  5
A3
330
1E
100
AcDbEntity
  8
NOTE
  6
CONTINUOUS
 62
     4
100
AcDbLine
 10
271.999999999998
 20
144.9999999999994
 30
0.0
 11
231.9999999999982
 21
144.9999999999994
 31
0.0
  0
LINE
  5
A4
330
1E
100
AcDbEntity
  8
NOTE
  6
CONTINUOUS
 62
     4
100
AcDbLine
 10
251.999999999998
 20
303.999999999998
 30
0.0
 11
681.491774494578
 21
984.2995962983939
 31
0.0
  0
LWPOLYLINE
  5
A5
330
1E
100
AcDbEntity
  8
NOTE
  6
CONTINUOUS
 62
     4
100
AcDbPolyline
 90
        3
 70
     0
 43
0.0
 10
281.308996192576
 20
331.2209987260357
 10
251.999999999998
 20
303.999999999998
 10
263.7718350300455
 20
342.2285738750097
  0
LINE
  5
AA
330
1E
100
AcDbEntity
  8
NOTE
  6
CONTINUOUS
 62
     4
100
AcDbLine
 10
472.999999999998
 20
257.9999999999989
 30
0.0
 11
472.999999999998
 21
297.999999999999
 31
0.0
  0
LINE
  5
AB
330
1E
100
AcDbEntity
  8
NOTE
  6
CONTINUOUS
 62
     4
100
AcDbLine
 10
492.9999999999981
 20
277.999999999999
 30
0.0
 11
452.999999999998
 21
277.999999999999
 31
0.0
  0
LINE
  5
AC
330
1E
100
AcDbEntity
  8
DETAIL
  6
CONTINUOUS
 62
     5
100
AcDbLine
 10
251.999999999998
 20
285.9999999999989
 30
0.0
 11
-183.0000000000017
 21
285.9999999999994
 31
0.0
  0
LINE
  5
AD
330
1E
100
AcDbEntity
  8
DETAIL
  6
CONTINUOUS
 62
     5
100
AcDbLine
 10
251.999999999998
 20
175.999999999999
 30
0.0
 11
-183.0000000000017
 21
175.999999999999
 31
0.0
  0
LINE
  5
AE
330
1E
100
AcDbEntity
  8
DETAIL
  6
CONTINUOUS
 62
     5
100
AcDbLine
 10
251.999999999998
 20
285.9999999999989
 30
0.0
 11
251.999999999998
 21
175.999999999999
 31
0.0
  0
LINE
  5
AF
330
1E
100
AcDbEntity
  8
DETAIL
  6
CONTINUOUS
 62
     5
100
AcDbLine
 10
-183.0000000000017
 20
285.9999999999989
 30
0.0
 11
-183.0000000000017
 21
175.999999999999
 31
0.0
  0
LINE
  5
B0
330
1E
100
AcDbEntity
  8
DETAIL
  6
CONTINUOUS
 62
     5
100
AcDbLine
 10
522.9999999999977
 20
145.6999999999993
 30
0.0
 11
472.999999999998
 21
145.6999999999993
 31
0.0
  0
LINE
  5
B1
330
1E
100
AcDbEntity
  8
DETAIL
  6
CONTINUOUS
 62
     5
100
AcDbLine
 10
-473.0
 20
145.6999999999993
 30
0.0
 11
-523.0
 21
145.6999999999993
 31
0.0
  0
LINE
  5
B2
330
1E
100
AcDbEntity
  8
SIZE
  6
CONTINUOUS
 62
    30
100
AcDbLine
 10
472.999999999998
 20
357.9999999999994
 30
0.0
 11
472.999999999998
 21
637.3869999999993
 31
0.0
  0
LINE
  5
B3
330
1E
100
AcDbEntity
  8
SIZE
  6
CONTINUOUS
 62
    30
100
AcDbLine
 10
251.999999999998
 20
343.9999999999995
 30
0.0
 11
251.9999999999981
 21
637.3869999999993
 31
0.0
  0
LINE
  5
B4
330
1E
100
AcDbEntity
  8
SIZE
  6
CONTINUOUS
 62
    30
100
AcDbLine
 10
462.9999999999982
 20
607.3869999999992
 30
0.0
 11
261.999999999998
 21
607.3869999999992
 31
0.0
  0
CIRCLE
  5
B5
330
1E
100
AcDbEntity
  8
SIZE
  6
CONTINUOUS
 62
    30
100
AcDbCircle
 10
472.999999999998
 20
607.3869999999992
 30
0.0
 40
5.0
  0
LINE
  5
B6
330
1E
100
AcDbEntity
  8
SIZE
  6
CONTINUOUS
 62
    30
100
AcDbLine
 10
467.9999999999981
 20
607.3869999999992
 30
0.0
 11
462.999999999998
 21
607.3869999999992
 31
0.0
  0
CIRCLE
  5
B7
330
1E
100
AcDbEntity
  8
SIZE
  6
CONTINUOUS
 62
    30
100
AcDbCircle
 10
251.9999999999981
 20
607.3869999999992
 30
0.0
 40
5.0
  0
LINE
  5
B8
330
1E
100
AcDbEntity
  8
SIZE
  6
CONTINUOUS
 62
    30
100
AcDbLine
 10
256.9999999999982
 20
607.3869999999992
 30
0.0
 11
261.9999999999981
 21
607.3869999999992
 31
0.0
  0
TEXT
  5
B9
330
1E
100
AcDbEntity
  8
SIZE
  6
CONTINUOUS
 62
    30
100
AcDbText
 10
295.3218968372334
 20
627.3869999999992
 30
0.0
 40
64.0
  1
221
 41
0.9
 72
     1
 11
357.0361825515191
 21
627.3869999999992
 31
0.0
100
AcDbText
  0
POINT
  5
BA
330
1E
100
AcDbEntity
  8
DEFPOINTS
  6
CONTINUOUS
 62
     7
100
AcDbPoint
 10
472.999999999998
 20
337.9999999999995
 30
0.0
  0
POINT
  5
BB
330
1E
100
AcDbEntity
  8
DEFPOINTS
  6
CONTINUOUS
 62
     7
100
AcDbPoint
 10
251.999999999998
 20
323.9999999999994
 30
0.0
  0
POINT
  5
BC
330
1E
100
AcDbEntity
  8
DEFPOINTS
  6
CONTINUOUS
 62
     7
100
AcDbPoint
 10
251.9999999999981
 20
607.3869999999992
 30
0.0
  0
LINE
  5
BD
330
1E
100
AcDbEntity
  8
SIZE
  6
CONTINUOUS
 62
    30
100
AcDbLine
 10
34.49999999999818
 20
343.9999999999995
 30
0.0
 11
34.49999999999819
 21
509.7928008183463
 31
0.0
  0
LINE
  5
BE
330
1E
100
AcDbEntity
  8
SIZE
  6
CONTINUOUS
 62
    30
100
AcDbLine
 10
251.999999999998
 20
343.9999999999995
 30
0.0
 11
251.999999999998
 21
509.7928008183463
 31
0.0
  0
LINE
  5
BF
330
1E
100
AcDbEntity
  8
SIZE
  6
CONTINUOUS
 62
    30
100
AcDbLine
 10
24.49999999999818
 20
479.7928008183462
 30
0.0
 11
14.49999999999818
 21
479.7928008183462
 31
0.0
  0
LINE
  5
C0
330
1E
100
AcDbEntity
  8
SIZE
  6
CONTINUOUS
 62
    30
100
AcDbLine
 10
261.999999999998
 20
479.7928008183462
 30
0.0
 11
271.999999999998
 21
479.7928008183462
 31
0.0
  0
LINE
  5
C1
330
1E
100
AcDbEntity
  8
SIZE
  6
CONTINUOUS
 62
    30
100
AcDbLine
 10
34.49999999999818
 20
479.7928008183462
 30
0.0
 11
251.999999999998
 21
479.7928008183462
 31
0.0
  0
CIRCLE
  5
C2
330
1E
100
AcDbEntity
  8
SIZE
  6
CONTINUOUS
 62
    30
100
AcDbCircle
 10
34.49999999999818
 20
479.7928008183462
 30
0.0
 40
5.0
  0
LINE
  5
C3
330
1E
100
AcDbEntity
  8
SIZE
  6
CONTINUOUS
 62
    30
100
AcDbLine
 10
29.49999999999818
 20
479.7928008183462
 30
0.0
 11
24.49999999999818
 21
479.7928008183462
 31
0.0
  0
CIRCLE
  5
C4
330
1E
100
AcDbEntity
  8
SIZE
  6
CONTINUOUS
 62
    30
100
AcDbCircle
 10
251.999999999998
 20
479.7928008183462
 30
0.0
 40
5.0
  0
LINE
  5
C5
330
1E
100
AcDbEntity
  8
SIZE
  6
CONTINUOUS
 62
    30
100
AcDbLine
 10
256.999999999998
 20
479.7928008183462
 30
0.0
 11
261.999999999998
 21
479.7928008183462
 31
0.0
  0
TEXT
  5
C6
330
1E
100
AcDbEntity
  8
SIZE
  6
CONTINUOUS
 62
    30
100
AcDbText
 10
33.5357142857124
 20
499.7928008183462
 30
0.0
 40
64.0
  1
217.5
 41
0.9
 72
     1
 11
143.2499999999981
 21
499.7928008183462
 31
0.0
100
AcDbText
  0
POINT
  5
C7
330
1E
100
AcDbEntity
  8
DEFPOINTS
  6
CONTINUOUS
 62
     7
100
AcDbPoint
 10
34.49999999999818
 20
323.9999999999994
 30
0.0
  0
POINT
  5
C8
330
1E
100
AcDbEntity
  8
DEFPOINTS
  6
CONTINUOUS
 62
     7
100
AcDbPoint
 10
251.999999999998
 20
323.9999999999994
 30
0.0
  0
POINT
  5
C9
330
1E
100
AcDbEntity
  8
DEFPOINTS
  6
CONTINUOUS
 62
     7
100
AcDbPoint
 10
251.999999999998
 20
479.7928008183462
 30
0.0
  0
LINE
  5
CA
330
1E
100
AcDbEntity
  8
SIZE
  6
CONTINUOUS
 62
    30
100
AcDbLine
 10
-605.0
 20
-20.00000000000044
 30
0.0
 11
-605.0
 21
-208.761564631879
 31
0.0
  0
LINE
  5
CB
330
1E
100
AcDbEntity
  8
SIZE
  6
CONTINUOUS
 62
    30
100
AcDbLine
 10
-625.0
 20
-21.00000000000044
 30
0.0
 11
-625.0
 21
-208.761564631879
 31
0.0
  0
LINE
  5
CC
330
1E
100
AcDbEntity
  8
SIZE
  6
CONTINUOUS
 62
    30
100
AcDbLine
 10
-595.0
 20
-178.761564631879
 30
0.0
 11
-585.0
 21
-178.761564631879
 31
0.0
  0
LINE
  5
CD
330
1E
100
AcDbEntity
  8
SIZE
  6
CONTINUOUS
 62
    30
100
AcDbLine
 10
-635.0
 20
-178.761564631879
 30
0.0
 11
-778.2571428571428
 21
-178.761564631879
 31
0.0
  0
LINE
  5
CE
330
1E
100
AcDbEntity
  8
SIZE
  6
CONTINUOUS
 62
    30
100
AcDbLine
 10
-605.0
 20
-178.761564631879
 30
0.0
 11
-625.0
 21
-178.761564631879
 31
0.0
  0
CIRCLE
  5
CF
330
1E
100
AcDbEntity
  8
SIZE
  6
CONTINUOUS
 62
    30
100
AcDbCircle
 10
-605.0
 20
-178.761564631879
 30
0.0
 40
5.0
  0
LINE
  5
D0
330
1E
100
AcDbEntity
  8
SIZE
  6
CONTINUOUS
 62
    30
100
AcDbLine
 10
-600.0
 20
-178.761564631879
 30
0.0
 11
-595.0
 21
-178.761564631879
 31
0.0
  0
CIRCLE
  5
D1
330
1E
100
AcDbEntity
  8
SIZE
  6
CONTINUOUS
 62
    30
100
AcDbCircle
 10
-625.0
 20
-178.761564631879
 30
0.0
 40
5.0
  0
LINE
  5
D2
330
1E
100
AcDbEntity
  8
SIZE
  6
CONTINUOUS
 62
    30
100
AcDbLine
 10
-630.0
 20
-178.761564631879
 30
0.0
 11
-635.0
 21
-178.761564631879
 31
0.0
  0
TEXT
  5
D3
330
1E
100
AcDbEntity
  8
SIZE
  6
CONTINUOUS
 62
    30
100
AcDbText
 10
-758.2571428571426
 20
-158.761564631879
 30
0.0
 40
64.0
  1
20
 41
0.9
 72
     1
 11
-711.6285714285712
 21
-158.761564631879
 31
0.0
100
AcDbText
  0
POINT
  5
D4
330
1E
100
AcDbEntity
  8
DEFPOINTS
  6
CONTINUOUS
 62
     7
100
AcDbPoint
 10
-605.0
 20
-0.0000000000004547
 30
0.0
  0
POINT
  5
D5
330
1E
100
AcDbEntity
  8
DEFPOINTS
  6
CONTINUOUS
 62
     7
100
AcDbPoint
 10
-625.0
 20
-1.000000000000454
 30
0.0
  0
POINT
  5
D6
330
1E
100
AcDbEntity
  8
DEFPOINTS
  6
CONTINUOUS
 62
     7
100
AcDbPoint
 10
-625.0
 20
-178.761564631879
 30
0.0
  0
LINE
  5
D7
330
1E
100
AcDbEntity
  8
SIZE
  6
CONTINUOUS
 62
    30
100
AcDbLine
 10
604.999999999999
 20
-20.00000000000044
 30
0.0
 11
604.999999999999
 21
-208.761564631879
 31
0.0
  0
LINE
  5
D8
330
1E
100
AcDbEntity
  8
SIZE
  6
CONTINUOUS
 62
    30
100
AcDbLine
 10
624.9999999999992
 20
-20.00000000000044
 30
0.0
 11
624.9999999999992
 21
-208.761564631879
 31
0.0
  0
LINE
  5
D9
330
1E
100
AcDbEntity
  8
SIZE
  6
CONTINUOUS
 62
    30
100
AcDbLine
 10
594.9999999999992
 20
-178.761564631879
 30
0.0
 11
584.9999999999989
 21
-178.761564631879
 31
0.0
  0
LINE
  5
DA
330
1E
100
AcDbEntity
  8
SIZE
  6
CONTINUOUS
 62
    30
100
AcDbLine
 10
634.9999999999989
 20
-178.761564631879
 30
0.0
 11
778.2571428571418
 21
-178.761564631879
 31
0.0
  0
LINE
  5
DB
330
1E
100
AcDbEntity
  8
SIZE
  6
CONTINUOUS
 62
    30
100
AcDbLine
 10
604.999999999999
 20
-178.761564631879
 30
0.0
 11
624.9999999999992
 21
-178.761564631879
 31
0.0
  0
CIRCLE
  5
DC
330
1E
100
AcDbEntity
  8
SIZE
  6
CONTINUOUS
 62
    30
100
AcDbCircle
 10
604.999999999999
 20
-178.761564631879
 30
0.0
 40
5.0
  0
LINE
  5
DD
330
1E
100
AcDbEntity
  8
SIZE
  6
CONTINUOUS
 62
    30
100
AcDbLine
 10
599.999999999999
 20
-178.761564631879
 30
0.0
 11
594.9999999999989
 21
-178.761564631879
 31
0.0
  0
CIRCLE
  5
DE
330
1E
100
AcDbEntity
  8
SIZE
  6
CONTINUOUS
 62
    30
100
AcDbCircle
 10
624.9999999999992
 20
-178.761564631879
 30
0.0
 40
5.0
  0
LINE
  5
DF
330
1E
100
AcDbEntity
  8
SIZE
  6
CONTINUOUS
 62
    30
100
AcDbLine
 10
629.9999999999991
 20
-178.761564631879
 30
0.0
 11
634.9999999999992
 21
-178.761564631879
 31
0.0
  0
TEXT
  5
E0
330
1E
100
AcDbEntity
  8
SIZE
  6
CONTINUOUS
 62
    30
100
AcDbText
 10
664.9999999999989
 20
-158.761564631879
 30
0.0
 40
64.0
  1
20
 41
0.9
 72
     1
 11
711.6285714285703
 21
-158.761564631879
 31
0.0
100
AcDbText
  0
POINT
  5
E1
330
1E
100
AcDbEntity
  8
DEFPOINTS
  6
CONTINUOUS
 62
     7
100
AcDbPoint
 10
604.999999999999
 20
-0.0000000000004547
 30
0.0
  0
POINT
  5
E2
330
1E
100
AcDbEntity
  8
DEFPOINTS
  6
CONTINUOUS
 62
     7
100
AcDbPoint
 10
624.9999999999992
 20
-0.0000000000004547
 30
0.0
  0
POINT
  5
E3
330
1E
100
AcDbEntity
  8
DEFPOINTS
  6
CONTINUOUS
 62
     7
100
AcDbPoint
 10
624.9999999999992
 20
-178.761564631879
 30
0.0
  0
LINE
  5
E4
330
1E
100
AcDbEntity
  8
SIZE
  6
CONTINUOUS
 62
    30
100
AcDbLine
 10
-497.0
 20
107.9999999999994
 30
0.0
 11
-497.0
 21
-626.4517531121874
 31
0.0
  0
LINE
  5
E5
330
1E
100
AcDbEntity
  8
SIZE
  6
CONTINUOUS
 62
    30
100
AcDbLine
 10
-605.0
 20
-20.00000000000044
 30
0.0
 11
-605.0
 21
-626.4517531121874
 31
0.0
  0
LINE
  5
E6
330
1E
100
AcDbEntity
  8
SIZE
  6
CONTINUOUS
 62
    30
100
AcDbLine
 10
-507.0
 20
-596.4517531121872
 30
0.0
 11
-595.0
 21
-596.4517531121872
 31
0.0
  0
LINE
  5
E7
330
1E
100
AcDbEntity
  8
SIZE
  6
CONTINUOUS
 62
    30
100
AcDbLine
 10
-605.0
 20
-596.4517531121872
 30
0.0
 11
-792.1428571428577
 21
-596.4517531121872
 31
0.0
  0
CIRCLE
  5
E8
330
1E
100
AcDbEntity
  8
SIZE
  6
CONTINUOUS
 62
    30
100
AcDbCircle
 10
-497.0
 20
-596.4517531121872
 30
0.0
 40
5.0
  0
LINE
  5
E9
330
1E
100
AcDbEntity
  8
SIZE
  6
CONTINUOUS
 62
    30
100
AcDbLine
 10
-502.0
 20
-596.4517531121872
 30
0.0
 11
-507.0
 21
-596.4517531121872
 31
0.0
  0
CIRCLE
  5
EA
330
1E
100
AcDbEntity
  8
SIZE
  6
CONTINUOUS
 62
    30
100
AcDbCircle
 10
-605.0
 20
-596.4517531121872
 30
0.0
 40
5.0
  0
LINE
  5
EB
330
1E
100
AcDbEntity
  8
SIZE
  6
CONTINUOUS
 62
    30
100
AcDbLine
 10
-600.0
 20
-596.4517531121872
 30
0.0
 11
-595.0
 21
-596.4517531121872
 31
0.0
  0
TEXT
  5
EC
330
1E
100
AcDbEntity
  8
SIZE
  6
CONTINUOUS
 62
    30
100
AcDbText
 10
-772.142857142858
 20
-576.4517531121872
 30
0.0
 40
64.0
  1
108
 41
0.9
 72
     1
 11
-703.5714285714294
 21
-576.4517531121872
 31
0.0
100
AcDbText
  0
POINT
  5
ED
330
1E
100
AcDbEntity
  8
DEFPOINTS
  6
CONTINUOUS
 62
     7
100
AcDbPoint
 10
-497.0
 20
127.9999999999995
 30
0.0
  0
POINT
  5
EE
330
1E
100
AcDbEntity
  8
DEFPOINTS
  6
CONTINUOUS
 62
     7
100
AcDbPoint
 10
-605.0
 20
-0.0000000000004547
 30
0.0
  0
POINT
  5
EF
330
1E
100
AcDbEntity
  8
DEFPOINTS
  6
CONTINUOUS
 62
     7
100
AcDbPoint
 10
-605.0
 20
-596.4517531121872
 30
0.0
  0
LINE
  5
F0
330
1E
100
AcDbEntity
  8
SIZE
  6
CONTINUOUS
 62
    30
100
AcDbLine
 10
496.9999999999977
 20
107.9999999999994
 30
0.0
 11
496.9999999999976
 21
-626.4517531121874
 31
0.0
  0
LINE
  5
F1
330
1E
100
AcDbEntity
  8
SIZE
  6
CONTINUOUS
 62
    30
100
AcDbLine
 10
604.999999999999
 20
-20.00000000000044
 30
0.0
 11
604.999999999999
 21
-626.4517531121874
 31
0.0
  0
LINE
  5
F2
330
1E
100
AcDbEntity
  8
SIZE
  6
CONTINUOUS
 62
    30
100
AcDbLine
 10
506.9999999999977
 20
-596.4517531121872
 30
0.0
 11
594.9999999999992
 21
-596.4517531121872
 31
0.0
  0
LINE
  5
F3
330
1E
100
AcDbEntity
  8
SIZE
  6
CONTINUOUS
 62
    30
100
AcDbLine
 10
604.999999999999
 20
-596.4517531121872
 30
0.0
 11
792.1428571428561
 21
-596.4517531121872
 31
0.0
  0
CIRCLE
  5
F4
330
1E
100
AcDbEntity
  8
SIZE
  6
CONTINUOUS
 62
    30
100
AcDbCircle
 10
496.9999999999976
 20
-596.4517531121872
 30
0.0
 40
5.0
  0
LINE
  5
F5
330
1E
100
AcDbEntity
  8
SIZE
  6
CONTINUOUS
 62
    30
100
AcDbLine
 10
501.9999999999976
 20
-596.4517531121872
 30
0.0
 11
506.9999999999976
 21
-596.4517531121872
 31
0.0
  0
CIRCLE
  5
F6
330
1E
100
AcDbEntity
  8
SIZE
  6
CONTINUOUS
 62
    30
100
AcDbCircle
 10
604.999999999999
 20
-596.4517531121872
 30
0.0
 40
5.0
  0
LINE
  5
F7
330
1E
100
AcDbEntity
  8
SIZE
  6
CONTINUOUS
 62
    30
100
AcDbLine
 10
599.999999999999
 20
-596.4517531121872
 30
0.0
 11
594.9999999999989
 21
-596.4517531121872
 31
0.0
  0
TEXT
  5
F8
330
1E
100
AcDbEntity
  8
SIZE
  6
CONTINUOUS
 62
    30
100
AcDbText
 10
634.999999999999
 20
-576.4517531121872
 30
0.0
 40
64.0
  1
108
 41
0.9
 72
     1
 11
703.5714285714276
 21
-576.4517531121872
 31
0.0
100
AcDbText
  0
POINT
  5
F9
330
1E
100
AcDbEntity
  8
DEFPOINTS
  6
CONTINUOUS
 62
     7
100
AcDbPoint
 10
496.9999999999977
 20
127.9999999999995
 30
0.0
  0
POINT
  5
FA
330
1E
100
AcDbEntity
  8
DEFPOINTS
  6
CONTINUOUS
 62
     7
100
AcDbPoint
 10
604.999999999999
 20
-0.0000000000004547
 30
0.0
  0
POINT
  5
FB
330
1E
100
AcDbEntity
  8
DEFPOINTS
  6
CONTINUOUS
 62
     7
100
AcDbPoint
 10
604.999999999999
 20
-596.4517531121872
 30
0.0
  0
TEXT
  5
FC
330
1E
100
AcDbEntity
  8
NOTE
  6
CONTINUOUS
 62
     4
100
AcDbText
 10
-339.9471710542792
 20
-280.6877366781455
 30
0.0
 40
64.0
  1
(Ceiling opening)
 41
0.9
100
AcDbText
  0
TEXT
  5
FD
330
1E
100
AcDbEntity
  8
NOTE
  6
CONTINUOUS
 62
     4
100
AcDbText
 10
-385.8697897263182
 20
-715.5009048837463
 30
0.0
 40
64.0
  1
(Lifting bolt pitch)
 41
0.9
100
AcDbText
  0
LINE
  5
FE
330
1E
100
AcDbEntity
  8
SIZE
  6
CONTINUOUS
 62
    30
100
AcDbLine
 10
-613.0
 20
44.99999999999952
 30
0.0
 11
-949.3874032420407
 21
44.99999999999963
 31
0.0
  0
LINE
  5
FF
330
1E
100
AcDbEntity
  8
SIZE
  6
CONTINUOUS
 62
    30
100
AcDbLine
 10
-685.0
 20
-0.0000000000004491
 30
0.0
 11
-949.3874032420407
 21
-0.0000000000003742
 31
0.0
  0
LINE
  5
100
330
1E
100
AcDbEntity
  8
SIZE
  6
CONTINUOUS
 62
    30
100
AcDbLine
 10
-919.3874032420406
 20
54.99999999999964
 30
0.0
 11
-919.3874032420406
 21
64.99999999999963
 31
0.0
  0
LINE
  5
101
330
1E
100
AcDbEntity
  8
SIZE
  6
CONTINUOUS
 62
    30
100
AcDbLine
 10
-919.3874032420406
 20
-10.00000000000037
 30
0.0
 11
-919.3874032420406
 21
-153.257142857144
 31
0.0
  0
LINE
  5
102
330
1E
100
AcDbEntity
  8
SIZE
  6
CONTINUOUS
 62
    30
100
AcDbLine
 10
-919.3874032420406
 20
44.99999999999963
 30
0.0
 11
-919.3874032420406
 21
-0.0000000000003827
 31
0.0
  0
CIRCLE
  5
103
330
1E
100
AcDbEntity
  8
SIZE
  6
CONTINUOUS
 62
    30
100
AcDbCircle
 10
-919.3874032420406
 20
44.99999999999963
 30
0.0
 40
5.0
  0
LINE
  5
104
330
1E
100
AcDbEntity
  8
SIZE
  6
CONTINUOUS
 62
    30
100
AcDbLine
 10
-919.3874032420406
 20
49.99999999999963
 30
0.0
 11
-919.3874032420406
 21
54.99999999999963
 31
0.0
  0
CIRCLE
  5
105
330
1E
100
AcDbEntity
  8
SIZE
  6
CONTINUOUS
 62
    30
100
AcDbCircle
 10
-919.3874032420406
 20
-0.0000000000003827
 30
0.0
 40
5.0
  0
LINE
  5
106
330
1E
100
AcDbEntity
  8
SIZE
  6
CONTINUOUS
 62
    30
100
AcDbLine
 10
-919.3874032420406
 20
-5.000000000000382
 30
0.0
 11
-919.3874032420406
 21
-10.00000000000038
 31
0.0
  0
TEXT
  5
107
330
1E
100
AcDbEntity
  8
SIZE
  6
CONTINUOUS
 62
    30
100
AcDbText
 10
-939.3874032420407
 20
-133.2571428571441
 30
0.0
 40
64.0
  1
45
 50
90.0
 41
0.9
 72
     1
 11
-939.3874032420407
 21
-86.62857142857275
 31
0.0
100
AcDbText
  0
POINT
  5
108
330
1E
100
AcDbEntity
  8
DEFPOINTS
  6
CONTINUOUS
 62
     7
100
AcDbPoint
 10
-593.0
 20
44.99999999999952
 30
0.0
  0
POINT
  5
109
330
1E
100
AcDbEntity
  8
DEFPOINTS
  6
CONTINUOUS
 62
     7
100
AcDbPoint
 10
-665.0
 20
-0.0000000000004547
 30
0.0
  0
POINT
  5
10A
330
1E
100
AcDbEntity
  8
DEFPOINTS
  6
CONTINUOUS
 62
     7
100
AcDbPoint
 10
-919.3874032420406
 20
-0.0000000000003827
 30
0.0
  0
LINE
  5
10B
330
1E
100
AcDbEntity
  8
SIZE
  6
CONTINUOUS
 62
    30
100
AcDbLine
 10
492.9999999999981
 20
337.9999999999995
 30
0.0
 11
809.6873285929811
 21
337.9999999999995
 31
0.0
  0
LINE
  5
10C
330
1E
100
AcDbEntity
  8
SIZE
  6
CONTINUOUS
 62
    30
100
AcDbLine
 10
512.9999999999983
 20
277.999999999999
 30
0.0
 11
809.6873285929811
 21
277.999999999999
 31
0.0
  0
LINE
  5
10D
330
1E
100
AcDbEntity
  8
SIZE
  6
CONTINUOUS
 62
    30
100
AcDbLine
 10
779.6873285929811
 20
327.9999999999994
 30
0.0
 11
779.6873285929811
 21
287.9999999999989
 31
0.0
  0
CIRCLE
  5
10E
330
1E
100
AcDbEntity
  8
SIZE
  6
CONTINUOUS
 62
    30
100
AcDbCircle
 10
779.6873285929811
 20
337.9999999999995
 30
0.0
 40
5.0
  0
LINE
  5
10F
330
1E
100
AcDbEntity
  8
SIZE
  6
CONTINUOUS
 62
    30
100
AcDbLine
 10
779.6873285929811
 20
332.9999999999994
 30
0.0
 11
779.6873285929811
 21
327.9999999999994
 31
0.0
  0
CIRCLE
  5
110
330
1E
100
AcDbEntity
  8
SIZE
  6
CONTINUOUS
 62
    30
100
AcDbCircle
 10
779.6873285929811
 20
277.999999999999
 30
0.0
 40
5.0
  0
LINE
  5
111
330
1E
100
AcDbEntity
  8
SIZE
  6
CONTINUOUS
 62
    30
100
AcDbLine
 10
779.6873285929811
 20
282.9999999999989
 30
0.0
 11
779.6873285929811
 21
287.9999999999989
 31
0.0
  0
TEXT
  5
112
330
1E
100
AcDbEntity
  8
SIZE
  6
CONTINUOUS
 62
    30
100
AcDbText
 10
759.6873285929807
 20
261.3714285714278
 30
0.0
 40
64.0
  1
60
 50
90.0
 41
0.9
 72
     1
 11
759.6873285929807
 21
307.9999999999992
 31
0.0
100
AcDbText
  0
POINT
  5
113
330
1E
100
AcDbEntity
  8
DEFPOINTS
  6
CONTINUOUS
 62
     7
100
AcDbPoint
 10
472.999999999998
 20
337.9999999999995
 30
0.0
  0
POINT
  5
114
330
1E
100
AcDbEntity
  8
DEFPOINTS
  6
CONTINUOUS
 62
     7
100
AcDbPoint
 10
492.9999999999981
 20
277.999999999999
 30
0.0
  0
POINT
  5
115
330
1E
100
AcDbEntity
  8
DEFPOINTS
  6
CONTINUOUS
 62
     7
100
AcDbPoint
 10
779.6873285929811
 20
277.999999999999
 30
0.0
  0
LINE
  5
116
330
1E
100
AcDbEntity
  8
SIZE
  6
CONTINUOUS
 62
    30
100
AcDbLine
 10
492.9999999999981
 20
337.9999999999995
 30
0.0
 11
930.3438659778636
 21
337.9999999999993
 31
0.0
  0
LINE
  5
117
330
1E
100
AcDbEntity
  8
SIZE
  6
CONTINUOUS
 62
    30
100
AcDbLine
 10
585.999999999998
 20
215.9999999999994
 30
0.0
 11
930.3438659778636
 21
215.9999999999993
 31
0.0
  0
LINE
  5
118
330
1E
100
AcDbEntity
  8
SIZE
  6
CONTINUOUS
 62
    30
100
AcDbLine
 10
900.3438659778636
 20
327.9999999999994
 30
0.0
 11
900.3438659778636
 21
225.9999999999994
 31
0.0
  0
CIRCLE
  5
119
330
1E
100
AcDbEntity
  8
SIZE
  6
CONTINUOUS
 62
    30
100
AcDbCircle
 10
900.3438659778636
 20
337.9999999999993
 30
0.0
 40
5.0
  0
LINE
  5
11A
330
1E
100
AcDbEntity
  8
SIZE
  6
CONTINUOUS
 62
    30
100
AcDbLine
 10
900.3438659778636
 20
332.9999999999993
 30
0.0
 11
900.3438659778636
 21
327.9999999999994
 31
0.0
  0
CIRCLE
  5
11B
330
1E
100
AcDbEntity
  8
SIZE
  6
CONTINUOUS
 62
    30
100
AcDbCircle
 10
900.3438659778636
 20
215.9999999999993
 30
0.0
 40
5.0
  0
LINE
  5
11C
330
1E
100
AcDbEntity
  8
SIZE
  6
CONTINUOUS
 62
    30
100
AcDbLine
 10
900.3438659778636
 20
220.9999999999994
 30
0.0
 11
900.3438659778636
 21
225.9999999999994
 31
0.0
  0
TEXT
  5
11D
330
1E
100
AcDbEntity
  8
SIZE
  6
CONTINUOUS
 62
    30
100
AcDbText
 10
880.3438659778633
 20
208.428571428571
 30
0.0
 40
64.0
  1
122
 50
90.0
 41
0.9
 72
     1
 11
880.3438659778633
 21
276.9999999999996
 31
0.0
100
AcDbText
  0
POINT
  5
11E
330
1E
100
AcDbEntity
  8
DEFPOINTS
  6
CONTINUOUS
 62
     7
100
AcDbPoint
 10
472.999999999998
 20
337.9999999999995
 30
0.0
  0
POINT
  5
11F
330
1E
100
AcDbEntity
  8
DEFPOINTS
  6
CONTINUOUS
 62
     7
100
AcDbPoint
 10
565.999999999998
 20
215.9999999999994
 30
0.0
  0
POINT
  5
120
330
1E
100
AcDbEntity
  8
DEFPOINTS
  6
CONTINUOUS
 62
     7
100
AcDbPoint
 10
900.3438659778636
 20
215.9999999999993
 30
0.0
  0
LINE
  5
121
330
1E
100
AcDbEntity
  8
SIZE
  6
CONTINUOUS
 62
    30
100
AcDbLine
 10
492.9999999999981
 20
337.9999999999995
 30
0.0
 11
1038.625368020738
 21
337.9999999999992
 31
0.0
  0
LINE
  5
122
330
1E
100
AcDbEntity
  8
SIZE
  6
CONTINUOUS
 62
    30
100
AcDbLine
 10
626.999999999998
 20
212.9999999999991
 30
0.0
 11
1038.625368020738
 21
212.9999999999988
 31
0.0
  0
LINE
  5
123
330
1E
100
AcDbEntity
  8
SIZE
  6
CONTINUOUS
 62
    30
100
AcDbLine
 10
1008.625368020738
 20
327.9999999999994
 30
0.0
 11
1008.625368020738
 21
222.9999999999988
 31
0.0
  0
CIRCLE
  5
124
330
1E
100
AcDbEntity
  8
SIZE
  6
CONTINUOUS
 62
    30
100
AcDbCircle
 10
1008.625368020738
 20
337.9999999999992
 30
0.0
 40
5.0
  0
LINE
  5
125
330
1E
100
AcDbEntity
  8
SIZE
  6
CONTINUOUS
 62
    30
100
AcDbLine
 10
1008.625368020738
 20
332.9999999999992
 30
0.0
 11
1008.625368020738
 21
327.9999999999992
 31
0.0
  0
CIRCLE
  5
126
330
1E
100
AcDbEntity
  8
SIZE
  6
CONTINUOUS
 62
    30
100
AcDbCircle
 10
1008.625368020738
 20
212.9999999999988
 30
0.0
 40
5.0
  0
LINE
  5
127
330
1E
100
AcDbEntity
  8
SIZE
  6
CONTINUOUS
 62
    30
100
AcDbLine
 10
1008.625368020738
 20
217.9999999999989
 30
0.0
 11
1008.625368020738
 21
222.9999999999988
 31
0.0
  0
TEXT
  5
128
330
1E
100
AcDbEntity
  8
SIZE
  6
CONTINUOUS
 62
    30
100
AcDbText
 10
988.6253680207385
 20
206.9285714285707
 30
0.0
 40
64.0
  1
125
 50
90.0
 41
0.9
 72
     1
 11
988.6253680207385
 21
275.4999999999992
 31
0.0
100
AcDbText
  0
POINT
  5
129
330
1E
100
AcDbEntity
  8
DEFPOINTS
  6
CONTINUOUS
 62
     7
100
AcDbPoint
 10
472.999999999998
 20
337.9999999999995
 30
0.0
  0
POINT
  5
12A
330
1E
100
AcDbEntity
  8
DEFPOINTS
  6
CONTINUOUS
 62
     7
100
AcDbPoint
 10
606.999999999998
 20
212.9999999999991
 30
0.0
  0
POINT
  5
12B
330
1E
100
AcDbEntity
  8
DEFPOINTS
  6
CONTINUOUS
 62
     7
100
AcDbPoint
 10
1008.625368020738
 20
212.9999999999988
 30
0.0
  0
LINE
  5
12C
330
1E
100
AcDbEntity
  8
SIZE
  6
CONTINUOUS
 62
    30
100
AcDbLine
 10
492.9999999999981
 20
337.9999999999995
 30
0.0
 11
1172.172910418264
 21
337.9999999999992
 31
0.0
  0
LINE
  5
12D
330
1E
100
AcDbEntity
  8
SIZE
  6
CONTINUOUS
 62
    30
100
AcDbLine
 10
542.9999999999981
 20
71.99999999999909
 30
0.0
 11
1172.172910418264
 21
71.9999999999989
 31
0.0
  0
LINE
  5
12E
330
1E
100
AcDbEntity
  8
SIZE
  6
CONTINUOUS
 62
    30
100
AcDbLine
 10
1142.172910418264
 20
327.9999999999994
 30
0.0
 11
1142.172910418264
 21
81.9999999999989
 31
0.0
  0
CIRCLE
  5
12F
330
1E
100
AcDbEntity
  8
SIZE
  6
CONTINUOUS
 62
    30
100
AcDbCircle
 10
1142.172910418264
 20
337.9999999999992
 30
0.0
 40
5.0
  0
LINE
  5
130
330
1E
100
AcDbEntity
  8
SIZE
  6
CONTINUOUS
 62
    30
100
AcDbLine
 10
1142.172910418264
 20
332.9999999999992
 30
0.0
 11
1142.172910418264
 21
327.9999999999992
 31
0.0
  0
CIRCLE
  5
131
330
1E
100
AcDbEntity
  8
SIZE
  6
CONTINUOUS
 62
    30
100
AcDbCircle
 10
1142.172910418264
 20
71.9999999999989
 30
0.0
 40
5.0
  0
LINE
  5
132
330
1E
100
AcDbEntity
  8
SIZE
  6
CONTINUOUS
 62
    30
100
AcDbLine
 10
1142.172910418264
 20
76.9999999999989
 30
0.0
 11
1142.172910418264
 21
81.9999999999989
 31
0.0
  0
TEXT
  5
133
330
1E
100
AcDbEntity
  8
SIZE
  6
CONTINUOUS
 62
    30
100
AcDbText
 10
1122.172910418264
 20
127.3395914809725
 30
0.0
 40
64.0
  1
266
 50
90.0
 41
0.9
 72
     1
 11
1122.172910418264
 21
200.0253057666868
 31
0.0
100
AcDbText
  0
POINT
  5
134
330
1E
100
AcDbEntity
  8
DEFPOINTS
  6
CONTINUOUS
 62
     7
100
AcDbPoint
 10
472.999999999998
 20
337.9999999999995
 30
0.0
  0
POINT
  5
135
330
1E
100
AcDbEntity
  8
DEFPOINTS
  6
CONTINUOUS
 62
     7
100
AcDbPoint
 10
522.999999999998
 20
71.99999999999909
 30
0.0
  0
POINT
  5
136
330
1E
100
AcDbEntity
  8
DEFPOINTS
  6
CONTINUOUS
 62
     7
100
AcDbPoint
 10
1142.172910418264
 20
71.9999999999989
 30
0.0
  0
LINE
  5
137
330
1E
100
AcDbEntity
  8
SIZE
  6
CONTINUOUS
 62
    30
100
AcDbLine
 10
452.999999999998
 20
337.999999999999
 30
0.0
 11
374.5265561297911
 21
337.999999999999
 31
0.0
  0
LINE
  5
138
330
1E
100
AcDbEntity
  8
SIZE
  6
CONTINUOUS
 62
    30
100
AcDbLine
 10
291.999999999998
 20
303.9999999999995
 30
0.0
 11
434.5265561297911
 21
303.9999999999995
 31
0.0
  0
LINE
  5
139
330
1E
100
AcDbEntity
  8
SIZE
  6
CONTINUOUS
 62
    30
100
AcDbLine
 10
404.526556129791
 20
293.9999999999995
 30
0.0
 11
404.526556129791
 21
283.9999999999993
 31
0.0
  0
LINE
  5
13A
330
1E
100
AcDbEntity
  8
SIZE
  6
CONTINUOUS
 62
    30
100
AcDbLine
 10
404.526556129791
 20
347.9999999999991
 30
0.0
 11
404.526556129791
 21
493.9999999999989
 31
0.0
  0
LINE
  5
13B
330
1E
100
AcDbEntity
  8
SIZE
  6
CONTINUOUS
 62
    30
100
AcDbLine
 10
404.526556129791
 20
303.9999999999995
 30
0.0
 11
404.526556129791
 21
337.999999999999
 31
0.0
  0
CIRCLE
  5
13C
330
1E
100
AcDbEntity
  8
SIZE
  6
CONTINUOUS
 62
    30
100
AcDbCircle
 10
404.526556129791
 20
303.9999999999995
 30
0.0
 40
5.0
  0
LINE
  5
13D
330
1E
100
AcDbEntity
  8
SIZE
  6
CONTINUOUS
 62
    30
100
AcDbLine
 10
404.526556129791
 20
298.9999999999994
 30
0.0
 11
404.526556129791
 21
293.9999999999995
 31
0.0
  0
CIRCLE
  5
13E
330
1E
100
AcDbEntity
  8
SIZE
  6
CONTINUOUS
 62
    30
100
AcDbCircle
 10
404.526556129791
 20
337.999999999999
 30
0.0
 40
5.0
  0
LINE
  5
13F
330
1E
100
AcDbEntity
  8
SIZE
  6
CONTINUOUS
 62
    30
100
AcDbLine
 10
404.526556129791
 20
342.999999999999
 30
0.0
 11
404.526556129791
 21
347.9999999999991
 31
0.0
  0
TEXT
  5
140
330
1E
100
AcDbEntity
  8
SIZE
  6
CONTINUOUS
 62
    30
100
AcDbText
 10
384.526556129791
 20
377.9999999999991
 30
0.0
 40
64.0
  1
34
 50
90.0
 41
0.9
 72
     1
 11
384.526556129791
 21
425.9999999999991
 31
0.0
100
AcDbText
  0
POINT
  5
141
330
1E
100
AcDbEntity
  8
DEFPOINTS
  6
CONTINUOUS
 62
     7
100
AcDbPoint
 10
472.999999999998
 20
337.999999999999
 30
0.0
  0
POINT
  5
142
330
1E
100
AcDbEntity
  8
DEFPOINTS
  6
CONTINUOUS
 62
     7
100
AcDbPoint
 10
271.999999999998
 20
303.9999999999995
 30
0.0
  0
POINT
  5
143
330
1E
100
AcDbEntity
  8
DEFPOINTS
  6
CONTINUOUS
 62
     7
100
AcDbPoint
 10
404.526556129791
 20
303.9999999999995
 30
0.0
  0
LINE
  5
144
330
1E
100
AcDbEntity
  8
SIZE
  6
CONTINUOUS
 62
    30
100
AcDbLine
 10
291.999999999998
 20
303.9999999999995
 30
0.0
 11
434.5265561297909
 21
303.9999999999995
 31
0.0
  0
LINE
  5
145
330
1E
100
AcDbEntity
  8
SIZE
  6
CONTINUOUS
 62
    30
100
AcDbLine
 10
291.999999999998
 20
144.9999999999994
 30
0.0
 11
434.5265561297909
 21
144.9999999999994
 31
0.0
  0
LINE
  5
146
330
1E
100
AcDbEntity
  8
SIZE
  6
CONTINUOUS
 62
    30
100
AcDbLine
 10
404.526556129791
 20
313.9999999999993
 30
0.0
 11
404.526556129791
 21
323.9999999999993
 31
0.0
  0
LINE
  5
147
330
1E
100
AcDbEntity
  8
SIZE
  6
CONTINUOUS
 62
    30
100
AcDbLine
 10
404.526556129791
 20
134.9999999999994
 30
0.0
 11
404.526556129791
 21
124.9999999999995
 31
0.0
  0
LINE
  5
148
330
1E
100
AcDbEntity
  8
SIZE
  6
CONTINUOUS
 62
    30
100
AcDbLine
 10
404.526556129791
 20
303.9999999999995
 30
0.0
 11
404.526556129791
 21
144.9999999999994
 31
0.0
  0
CIRCLE
  5
149
330
1E
100
AcDbEntity
  8
SIZE
  6
CONTINUOUS
 62
    30
100
AcDbCircle
 10
404.526556129791
 20
303.9999999999995
 30
0.0
 40
5.0
  0
LINE
  5
14A
330
1E
100
AcDbEntity
  8
SIZE
  6
CONTINUOUS
 62
    30
100
AcDbLine
 10
404.526556129791
 20
308.9999999999994
 30
0.0
 11
404.526556129791
 21
313.9999999999994
 31
0.0
  0
CIRCLE
  5
14B
330
1E
100
AcDbEntity
  8
SIZE
  6
CONTINUOUS
 62
    30
100
AcDbCircle
 10
404.526556129791
 20
144.9999999999994
 30
0.0
 40
5.0
  0
LINE
  5
14C
330
1E
100
AcDbEntity
  8
SIZE
  6
CONTINUOUS
 62
    30
100
AcDbLine
 10
404.526556129791
 20
139.9999999999994
 30
0.0
 11
404.526556129791
 21
134.9999999999994
 31
0.0
  0
TEXT
  5
14D
330
1E
100
AcDbEntity
  8
SIZE
  6
CONTINUOUS
 62
    30
100
AcDbText
 10
384.526556129791
 20
157.2999999999994
 30
0.0
 40
64.0
  1
159
 50
90.0
 41
0.9
 72
     1
 11
384.526556129791
 21
224.4999999999994
 31
0.0
100
AcDbText
  0
POINT
  5
14E
330
1E
100
AcDbEntity
  8
DEFPOINTS
  6
CONTINUOUS
 62
     7
100
AcDbPoint
 10
271.999999999998
 20
303.9999999999995
 30
0.0
  0
POINT
  5
14F
330
1E
100
AcDbEntity
  8
DEFPOINTS
  6
CONTINUOUS
 62
     7
100
AcDbPoint
 10
271.999999999998
 20
144.9999999999994
 30
0.0
  0
POINT
  5
150
330
1E
100
AcDbEntity
  8
DEFPOINTS
  6
CONTINUOUS
 62
     7
100
AcDbPoint
 10
404.526556129791
 20
144.9999999999994
 30
0.0
  0
TEXT
  5
151
330
1E
100
AcDbEntity
  8
NOTE
  6
CONTINUOUS
 62
     4
100
AcDbText
 10
725.1539661699755
 20
1004.734961046062
 30
0.0
 40
64.0
  1
6-%%c2.9
 41
0.9
100
AcDbText
  0
LINE
  5
152
330
1E
100
AcDbEntity
  8
NOTE
  6
CONTINUOUS
 62
     4
100
AcDbLine
 10
681.491774494578
 20
984.2995962983939
 30
0.0
 11
1087.751969494577
 21
984.2995962983939
 31
0.0
  0
TEXT
  5
153
330
1E
100
AcDbEntity
  8
NOTE
  6
CONTINUOUS
 62
     4
100
AcDbText
 10
-1313.474654090198
 20
619.4407348637449
 30
0.0
 40
64.0
  1
AH 4-14X30
 41
0.9
100
AcDbText
  0
LINE
  5
154
330
1E
100
AcDbEntity
  8
NOTE
  6
CONTINUOUS
 62
     4
100
AcDbLine
 10
-1377.827487815826
 20
586.374426736013
 30
0.0
 11
-711.5672928158272
 21
586.374426736013
 31
0.0
  0
LINE
  5
155
330
1E
100
AcDbEntity
  8
SIZE
  6
CONTINUOUS
 62
    30
100
AcDbLine
 10
472.999999999998
 20
357.9999999999991
 30
0.0
 11
472.999999999998
 21
456.1000073814484
 31
0.0
  0
LINE
  5
156
330
1E
100
AcDbEntity
  8
SIZE
  6
CONTINUOUS
 62
    30
100
AcDbLine
 10
539.999999999998
 20
255.9999999999994
 30
0.0
 11
539.999999999998
 21
456.1000073814484
 31
0.0
  0
LINE
  5
157
330
1E
100
AcDbEntity
  8
SIZE
  6
CONTINUOUS
 62
    30
100
AcDbLine
 10
482.9999999999982
 20
426.1000073814484
 30
0.0
 11
529.9999999999982
 21
426.1000073814484
 31
0.0
  0
LINE
  5
158
330
1E
100
AcDbEntity
  8
SIZE
  6
CONTINUOUS
 62
    30
100
AcDbLine
 10
539.999999999998
 20
426.1000073814484
 30
0.0
 11
683.257142857141
 21
426.1000073814484
 31
0.0
  0
CIRCLE
  5
159
330
1E
100
AcDbEntity
  8
SIZE
  6
CONTINUOUS
 62
    30
100
AcDbCircle
 10
472.999999999998
 20
426.1000073814484
 30
0.0
 40
5.0
  0
LINE
  5
15A
330
1E
100
AcDbEntity
  8
SIZE
  6
CONTINUOUS
 62
    30
100
AcDbLine
 10
477.999999999998
 20
426.1000073814484
 30
0.0
 11
482.999999999998
 21
426.1000073814484
 31
0.0
  0
CIRCLE
  5
15B
330
1E
100
AcDbEntity
  8
SIZE
  6
CONTINUOUS
 62
    30
100
AcDbCircle
 10
539.999999999998
 20
426.1000073814484
 30
0.0
 40
5.0
  0
LINE
  5
15C
330
1E
100
AcDbEntity
  8
SIZE
  6
CONTINUOUS
 62
    30
100
AcDbLine
 10
534.999999999998
 20
426.1000073814484
 30
0.0
 11
529.9999999999981
 21
426.1000073814484
 31
0.0
  0
TEXT
  5
15D
330
1E
100
AcDbEntity
  8
SIZE
  6
CONTINUOUS
 62
    30
100
AcDbText
 10
569.999999999998
 20
446.1000073814483
 30
0.0
 40
64.0
  1
67
 41
0.9
 72
     1
 11
616.6285714285694
 21
446.1000073814483
 31
0.0
100
AcDbText
  0
POINT
  5
15E
330
1E
100
AcDbEntity
  8
DEFPOINTS
  6
CONTINUOUS
 62
     7
100
AcDbPoint
 10
472.999999999998
 20
337.999999999999
 30
0.0
  0
POINT
  5
15F
330
1E
100
AcDbEntity
  8
DEFPOINTS
  6
CONTINUOUS
 62
     7
100
AcDbPoint
 10
539.999999999998
 20
235.9999999999994
 30
0.0
  0
POINT
  5
160
330
1E
100
AcDbEntity
  8
DEFPOINTS
  6
CONTINUOUS
 62
     7
100
AcDbPoint
 10
539.999999999998
 20
426.1000073814484
 30
0.0
  0
LINE
  5
161
330
1E
100
AcDbEntity
  8
SIZE
  6
CONTINUOUS
 62
    30
100
AcDbLine
 10
472.999999999998
 20
357.9999999999994
 30
0.0
 11
472.999999999998
 21
569.407168675838
 31
0.0
  0
LINE
  5
162
330
1E
100
AcDbEntity
  8
SIZE
  6
CONTINUOUS
 62
    30
100
AcDbLine
 10
545.9999999999982
 20
255.9999999999994
 30
0.0
 11
545.9999999999982
 21
569.407168675838
 31
0.0
  0
LINE
  5
163
330
1E
100
AcDbEntity
  8
SIZE
  6
CONTINUOUS
 62
    30
100
AcDbLine
 10
482.9999999999982
 20
539.4071686758377
 30
0.0
 11
535.999999999998
 21
539.4071686758377
 31
0.0
  0
LINE
  5
164
330
1E
100
AcDbEntity
  8
SIZE
  6
CONTINUOUS
 62
    30
100
AcDbLine
 10
545.9999999999982
 20
539.4071686758377
 30
0.0
 11
689.2571428571409
 21
539.4071686758377
 31
0.0
  0
CIRCLE
  5
165
330
1E
100
AcDbEntity
  8
SIZE
  6
CONTINUOUS
 62
    30
100
AcDbCircle
 10
472.999999999998
 20
539.4071686758377
 30
0.0
 40
5.0
  0
LINE
  5
166
330
1E
100
AcDbEntity
  8
SIZE
  6
CONTINUOUS
 62
    30
100
AcDbLine
 10
477.999999999998
 20
539.4071686758377
 30
0.0
 11
482.999999999998
 21
539.4071686758377
 31
0.0
  0
CIRCLE
  5
167
330
1E
100
AcDbEntity
  8
SIZE
  6
CONTINUOUS
 62
    30
100
AcDbCircle
 10
545.9999999999982
 20
539.4071686758377
 30
0.0
 40
5.0
  0
LINE
  5
168
330
1E
100
AcDbEntity
  8
SIZE
  6
CONTINUOUS
 62
    30
100
AcDbLine
 10
540.9999999999981
 20
539.4071686758377
 30
0.0
 11
535.9999999999981
 21
539.4071686758377
 31
0.0
  0
TEXT
  5
169
330
1E
100
AcDbEntity
  8
SIZE
  6
CONTINUOUS
 62
    30
100
AcDbText
 10
575.9999999999979
 20
559.4071686758377
 30
0.0
 40
64.0
  1
73
 41
0.9
 72
     1
 11
622.6285714285694
 21
559.4071686758377
 31
0.0
100
AcDbText
  0
POINT
  5
16A
330
1E
100
AcDbEntity
  8
DEFPOINTS
  6
CONTINUOUS
 62
     7
100
AcDbPoint
 10
472.999999999998
 20
337.9999999999995
 30
0.0
  0
POINT
  5
16B
330
1E
100
AcDbEntity
  8
DEFPOINTS
  6
CONTINUOUS
 62
     7
100
AcDbPoint
 10
545.9999999999982
 20
235.9999999999994
 30
0.0
  0
POINT
  5
16C
330
1E
100
AcDbEntity
  8
DEFPOINTS
  6
CONTINUOUS
 62
     7
100
AcDbPoint
 10
545.9999999999982
 20
539.4071686758377
 30
0.0
  0
LINE
  5
16D
330
1E
100
AcDbEntity
  8
SIZE
  6
CONTINUOUS
 62
    30
100
AcDbLine
 10
502.999999999998
 20
31.99999999999909
 30
0.0
 11
502.999999999998
 21
-137.1193382366527
 31
0.0
  0
LINE
  5
16E
330
1E
100
AcDbEntity
  8
SIZE
  6
CONTINUOUS
 62
    30
100
AcDbLine
 10
472.999999999998
 20
24.99999999999954
 30
0.0
 11
472.999999999998
 21
-137.1193382366527
 31
0.0
  0
LINE
  5
16F
330
1E
100
AcDbEntity
  8
SIZE
  6
CONTINUOUS
 62
    30
100
AcDbLine
 10
512.9999999999982
 20
-107.1193382366526
 30
0.0
 11
522.999999999998
 21
-107.1193382366526
 31
0.0
  0
LINE
  5
170
330
1E
100
AcDbEntity
  8
SIZE
  6
CONTINUOUS
 62
    30
100
AcDbLine
 10
462.9999999999982
 20
-107.1193382366526
 30
0.0
 11
319.7428571428552
 21
-107.1193382366526
 31
0.0
  0
LINE
  5
171
330
1E
100
AcDbEntity
  8
SIZE
  6
CONTINUOUS
 62
    30
100
AcDbLine
 10
502.999999999998
 20
-107.1193382366526
 30
0.0
 11
472.999999999998
 21
-107.1193382366526
 31
0.0
  0
CIRCLE
  5
172
330
1E
100
AcDbEntity
  8
SIZE
  6
CONTINUOUS
 62
    30
100
AcDbCircle
 10
502.999999999998
 20
-107.1193382366526
 30
0.0
 40
5.0
  0
LINE
  5
173
330
1E
100
AcDbEntity
  8
SIZE
  6
CONTINUOUS
 62
    30
100
AcDbLine
 10
507.999999999998
 20
-107.1193382366526
 30
0.0
 11
512.9999999999982
 21
-107.1193382366526
 31
0.0
  0
CIRCLE
  5
174
330
1E
100
AcDbEntity
  8
SIZE
  6
CONTINUOUS
 62
    30
100
AcDbCircle
 10
472.999999999998
 20
-107.1193382366526
 30
0.0
 40
5.0
  0
LINE
  5
175
330
1E
100
AcDbEntity
  8
SIZE
  6
CONTINUOUS
 62
    30
100
AcDbLine
 10
467.9999999999981
 20
-107.1193382366526
 30
0.0
 11
462.999999999998
 21
-107.1193382366526
 31
0.0
  0
TEXT
  5
176
330
1E
100
AcDbEntity
  8
SIZE
  6
CONTINUOUS
 62
    30
100
AcDbText
 10
339.7428571428552
 20
-87.11933823665278
 30
0.0
 40
64.0
  1
30
 41
0.9
 72
     1
 11
386.3714285714266
 21
-87.11933823665278
 31
0.0
100
AcDbText
  0
POINT
  5
177
330
1E
100
AcDbEntity
  8
DEFPOINTS
  6
CONTINUOUS
 62
     7
100
AcDbPoint
 10
502.999999999998
 20
51.99999999999909
 30
0.0
  0
POINT
  5
178
330
1E
100
AcDbEntity
  8
DEFPOINTS
  6
CONTINUOUS
 62
     7
100
AcDbPoint
 10
472.999999999998
 20
44.99999999999952
 30
0.0
  0
POINT
  5
179
330
1E
100
AcDbEntity
  8
DEFPOINTS
  6
CONTINUOUS
 62
     7
100
AcDbPoint
 10
472.999999999998
 20
-107.1193382366526
 30
0.0
  0
LINE
  5
17A
330
1E
100
AcDbEntity
  8
SIZE
  6
CONTINUOUS
 62
    30
100
AcDbLine
 10
-203.0000000000017
 20
285.9999999999994
 30
0.0
 11
-782.6630526236621
 21
285.9999999999997
 31
0.0
  0
LINE
  5
17B
330
1E
100
AcDbEntity
  8
SIZE
  6
CONTINUOUS
 62
    30
100
AcDbLine
 10
-203.0000000000017
 20
175.999999999999
 30
0.0
 11
-782.6630526236622
 21
175.9999999999991
 31
0.0
  0
LINE
  5
17C
330
1E
100
AcDbEntity
  8
SIZE
  6
CONTINUOUS
 62
    30
100
AcDbLine
 10
-752.6630526236621
 20
295.9999999999997
 30
0.0
 11
-752.6630526236621
 21
305.9999999999997
 31
0.0
  0
LINE
  5
17D
330
1E
100
AcDbEntity
  8
SIZE
  6
CONTINUOUS
 62
    30
100
AcDbLine
 10
-752.6630526236622
 20
165.9999999999991
 30
0.0
 11
-752.6630526236622
 21
155.9999999999991
 31
0.0
  0
LINE
  5
17E
330
1E
100
AcDbEntity
  8
SIZE
  6
CONTINUOUS
 62
    30
100
AcDbLine
 10
-752.6630526236621
 20
285.9999999999997
 30
0.0
 11
-752.6630526236622
 21
175.9999999999991
 31
0.0
  0
CIRCLE
  5
17F
330
1E
100
AcDbEntity
  8
SIZE
  6
CONTINUOUS
 62
    30
100
AcDbCircle
 10
-752.6630526236621
 20
285.9999999999997
 30
0.0
 40
5.0
  0
LINE
  5
180
330
1E
100
AcDbEntity
  8
SIZE
  6
CONTINUOUS
 62
    30
100
AcDbLine
 10
-752.6630526236621
 20
290.9999999999996
 30
0.0
 11
-752.6630526236621
 21
295.9999999999997
 31
0.0
  0
CIRCLE
  5
181
330
1E
100
AcDbEntity
  8
SIZE
  6
CONTINUOUS
 62
    30
100
AcDbCircle
 10
-752.6630526236622
 20
175.9999999999991
 30
0.0
 40
5.0
  0
LINE
  5
182
330
1E
100
AcDbEntity
  8
SIZE
  6
CONTINUOUS
 62
    30
100
AcDbLine
 10
-752.6630526236622
 20
170.9999999999991
 30
0.0
 11
-752.6630526236622
 21
165.9999999999991
 31
0.0
  0
TEXT
  5
183
330
1E
100
AcDbEntity
  8
SIZE
  6
CONTINUOUS
 62
    30
100
AcDbText
 10
-772.6630526236622
 20
167.9142857142849
 30
0.0
 40
64.0
  1
110
 50
90.0
 41
0.9
 72
     1
 11
-772.6630526236622
 21
230.9999999999992
 31
0.0
100
AcDbText
  0
POINT
  5
184
330
1E
100
AcDbEntity
  8
DEFPOINTS
  6
CONTINUOUS
 62
     7
100
AcDbPoint
 10
-183.0000000000017
 20
285.9999999999994
 30
0.0
  0
POINT
  5
185
330
1E
100
AcDbEntity
  8
DEFPOINTS
  6
CONTINUOUS
 62
     7
100
AcDbPoint
 10
-183.0000000000017
 20
175.999999999999
 30
0.0
  0
POINT
  5
186
330
1E
100
AcDbEntity
  8
DEFPOINTS
  6
CONTINUOUS
 62
     7
100
AcDbPoint
 10
-752.6630526236622
 20
175.9999999999991
 30
0.0
  0
LINE
  5
187
330
1E
100
AcDbEntity
  8
SIZE
  6
CONTINUOUS
 62
    30
100
AcDbLine
 10
-493.0000000000008
 20
337.999999999999
 30
0.0
 11
-782.6630526236621
 21
337.999999999999
 31
0.0
  0
LINE
  5
188
330
1E
100
AcDbEntity
  8
SIZE
  6
CONTINUOUS
 62
    30
100
AcDbLine
 10
-203.0000000000017
 20
285.9999999999989
 30
0.0
 11
-782.6630526236621
 21
285.9999999999991
 31
0.0
  0
LINE
  5
189
330
1E
100
AcDbEntity
  8
SIZE
  6
CONTINUOUS
 62
    30
100
AcDbLine
 10
-752.6630526236621
 20
275.9999999999992
 30
0.0
 11
-752.6630526236621
 21
265.9999999999992
 31
0.0
  0
LINE
  5
18A
330
1E
100
AcDbEntity
  8
SIZE
  6
CONTINUOUS
 62
    30
100
AcDbLine
 10
-752.6630526236621
 20
347.9999999999991
 30
0.0
 11
-752.6630526236621
 21
491.2571428571419
 31
0.0
  0
LINE
  5
18B
330
1E
100
AcDbEntity
  8
SIZE
  6
CONTINUOUS
 62
    30
100
AcDbLine
 10
-752.6630526236621
 20
285.9999999999991
 30
0.0
 11
-752.6630526236621
 21
337.999999999999
 31
0.0
  0
CIRCLE
  5
18C
330
1E
100
AcDbEntity
  8
SIZE
  6
CONTINUOUS
 62
    30
100
AcDbCircle
 10
-752.6630526236621
 20
285.9999999999991
 30
0.0
 40
5.0
  0
LINE
  5
18D
330
1E
100
AcDbEntity
  8
SIZE
  6
CONTINUOUS
 62
    30
100
AcDbLine
 10
-752.6630526236621
 20
280.9999999999991
 30
0.0
 11
-752.6630526236621
 21
275.9999999999992
 31
0.0
  0
CIRCLE
  5
18E
330
1E
100
AcDbEntity
  8
SIZE
  6
CONTINUOUS
 62
    30
100
AcDbCircle
 10
-752.6630526236621
 20
337.999999999999
 30
0.0
 40
5.0
  0
LINE
  5
18F
330
1E
100
AcDbEntity
  8
SIZE
  6
CONTINUOUS
 62
    30
100
AcDbLine
 10
-752.6630526236621
 20
342.999999999999
 30
0.0
 11
-752.6630526236621
 21
347.9999999999991
 31
0.0
  0
TEXT
  5
190
330
1E
100
AcDbEntity
  8
SIZE
  6
CONTINUOUS
 62
    30
100
AcDbText
 10
-772.6630526236622
 20
377.999999999999
 30
0.0
 40
64.0
  1
52
 50
90.0
 41
0.9
 72
     1
 11
-772.6630526236622
 21
424.6285714285703
 31
0.0
100
AcDbText
  0
POINT
  5
191
330
1E
100
AcDbEntity
  8
DEFPOINTS
  6
CONTINUOUS
 62
     7
100
AcDbPoint
 10
-473.0000000000008
 20
337.999999999999
 30
0.0
  0
POINT
  5
192
330
1E
100
AcDbEntity
  8
DEFPOINTS
  6
CONTINUOUS
 62
     7
100
AcDbPoint
 10
-183.0000000000017
 20
285.9999999999989
 30
0.0
  0
POINT
  5
193
330
1E
100
AcDbEntity
  8
DEFPOINTS
  6
CONTINUOUS
 62
     7
100
AcDbPoint
 10
-752.6630526236621
 20
285.9999999999991
 30
0.0
  0
LINE
  5
194
330
1E
100
AcDbEntity
  8
SIZE
  6
CONTINUOUS
 62
    30
100
AcDbLine
 10
-493.0000000000008
 20
337.999999999999
 30
0.0
 11
-976.4953017397308
 21
337.9999999999991
 31
0.0
  0
LINE
  5
195
330
1E
100
AcDbEntity
  8
SIZE
  6
CONTINUOUS
 62
    30
100
AcDbLine
 10
-537.0
 20
147.9999999999994
 30
0.0
 11
-976.4953017397308
 21
147.9999999999995
 31
0.0
  0
LINE
  5
196
330
1E
100
AcDbEntity
  8
SIZE
  6
CONTINUOUS
 62
    30
100
AcDbLine
 10
-946.4953017397307
 20
327.9999999999992
 30
0.0
 11
-946.4953017397313
 21
157.9999999999996
 31
0.0
  0
CIRCLE
  5
197
330
1E
100
AcDbEntity
  8
SIZE
  6
CONTINUOUS
 62
    30
100
AcDbCircle
 10
-946.4953017397307
 20
337.9999999999991
 30
0.0
 40
5.0
  0
LINE
  5
198
330
1E
100
AcDbEntity
  8
SIZE
  6
CONTINUOUS
 62
    30
100
AcDbLine
 10
-946.4953017397307
 20
332.9999999999992
 30
0.0
 11
-946.4953017397307
 21
327.9999999999992
 31
0.0
  0
CIRCLE
  5
199
330
1E
100
AcDbEntity
  8
SIZE
  6
CONTINUOUS
 62
    30
100
AcDbCircle
 10
-946.4953017397313
 20
147.9999999999995
 30
0.0
 40
5.0
  0
LINE
  5
19A
330
1E
100
AcDbEntity
  8
SIZE
  6
CONTINUOUS
 62
    30
100
AcDbLine
 10
-946.4953017397313
 20
152.9999999999995
 30
0.0
 11
-946.4953017397313
 21
157.9999999999996
 31
0.0
  0
TEXT
  5
19B
330
1E
100
AcDbEntity
  8
SIZE
  6
CONTINUOUS
 62
    30
100
AcDbText
 10
-966.4953017397312
 20
174.4285714285706
 30
0.0
 40
64.0
  1
190
 50
90.0
 41
0.9
 72
     1
 11
-966.4953017397312
 21
242.9999999999992
 31
0.0
100
AcDbText
  0
POINT
  5
19C
330
1E
100
AcDbEntity
  8
DEFPOINTS
  6
CONTINUOUS
 62
     7
100
AcDbPoint
 10
-473.0000000000008
 20
337.999999999999
 30
0.0
  0
POINT
  5
19D
330
1E
100
AcDbEntity
  8
DEFPOINTS
  6
CONTINUOUS
 62
     7
100
AcDbPoint
 10
-517.0
 20
147.9999999999994
 30
0.0
  0
POINT
  5
19E
330
1E
100
AcDbEntity
  8
DEFPOINTS
  6
CONTINUOUS
 62
     7
100
AcDbPoint
 10
-946.4953017397313
 20
147.9999999999995
 30
0.0
  0
LINE
  5
19F
330
1E
100
AcDbEntity
  8
SIZE
  6
CONTINUOUS
 62
    30
100
AcDbLine
 10
-493.0000000000017
 20
337.9999999999995
 30
0.0
 11
-1090.880209331146
 21
337.9999999999997
 31
0.0
  0
LINE
  5
1A0
330
1E
100
AcDbEntity
  8
SIZE
  6
CONTINUOUS
 62
    30
100
AcDbLine
 10
-493.0
 20
47.99999999999909
 30
0.0
 11
-1090.880209331146
 21
47.99999999999925
 31
0.0
  0
LINE
  5
1A1
330
1E
100
AcDbEntity
  8
SIZE
  6
CONTINUOUS
 62
    30
100
AcDbLine
 10
-1060.880209331146
 20
327.9999999999997
 30
0.0
 11
-1060.880209331146
 21
57.99999999999926
 31
0.0
  0
CIRCLE
  5
1A2
330
1E
100
AcDbEntity
  8
SIZE
  6
CONTINUOUS
 62
    30
100
AcDbCircle
 10
-1060.880209331146
 20
337.9999999999997
 30
0.0
 40
5.0
  0
LINE
  5
1A3
330
1E
100
AcDbEntity
  8
SIZE
  6
CONTINUOUS
 62
    30
100
AcDbLine
 10
-1060.880209331146
 20
332.9999999999997
 30
0.0
 11
-1060.880209331146
 21
327.9999999999997
 31
0.0
  0
CIRCLE
  5
1A4
330
1E
100
AcDbEntity
  8
SIZE
  6
CONTINUOUS
 62
    30
100
AcDbCircle
 10
-1060.880209331146
 20
47.99999999999925
 30
0.0
 40
5.0
  0
LINE
  5
1A5
330
1E
100
AcDbEntity
  8
SIZE
  6
CONTINUOUS
 62
    30
100
AcDbLine
 10
-1060.880209331146
 20
52.99999999999925
 30
0.0
 11
-1060.880209331146
 21
57.99999999999925
 31
0.0
  0
TEXT
  5
1A6
330
1E
100
AcDbEntity
  8
SIZE
  6
CONTINUOUS
 62
    30
100
AcDbText
 10
-1080.880209331146
 20
118.9428571428564
 30
0.0
 40
64.0
  1
290
 50
90.0
 41
0.9
 72
     1
 11
-1080.880209331146
 21
192.9999999999992
 31
0.0
100
AcDbText
  0
POINT
  5
1A7
330
1E
100
AcDbEntity
  8
DEFPOINTS
  6
CONTINUOUS
 62
     7
100
AcDbPoint
 10
-473.0000000000017
 20
337.9999999999995
 30
0.0
  0
POINT
  5
1A8
330
1E
100
AcDbEntity
  8
DEFPOINTS
  6
CONTINUOUS
 62
     7
100
AcDbPoint
 10
-473.0
 20
47.99999999999909
 30
0.0
  0
POINT
  5
1A9
330
1E
100
AcDbEntity
  8
DEFPOINTS
  6
CONTINUOUS
 62
     7
100
AcDbPoint
 10
-1060.880209331146
 20
47.99999999999925
 30
0.0
  0
LINE
  5
1AA
330
1E
100
AcDbEntity
  8
SIZE
  6
CONTINUOUS
 62
    30
100
AcDbLine
 10
-625.0
 20
-20.00000000000044
 30
0.0
 11
-625.0
 21
-500.2444530000001
 31
0.0
  0
LINE
  5
1AB
330
1E
100
AcDbEntity
  8
SIZE
  6
CONTINUOUS
 62
    30
100
AcDbLine
 10
624.9999999999992
 20
-20.00000000000044
 30
0.0
 11
624.9999999999992
 21
-500.2444530000001
 31
0.0
  0
LINE
  5
1AC
330
1E
100
AcDbEntity
  8
SIZE
  6
CONTINUOUS
 62
    30
100
AcDbLine
 10
-615.0
 20
-470.2444530000001
 30
0.0
 11
614.9999999999992
 21
-470.2444530000001
 31
0.0
  0
CIRCLE
  5
1AD
330
1E
100
AcDbEntity
  8
SIZE
  6
CONTINUOUS
 62
    30
100
AcDbCircle
 10
-625.0
 20
-470.2444530000001
 30
0.0
 40
5.0
  0
LINE
  5
1AE
330
1E
100
AcDbEntity
  8
SIZE
  6
CONTINUOUS
 62
    30
100
AcDbLine
 10
-620.0
 20
-470.2444530000001
 30
0.0
 11
-615.0
 21
-470.2444530000001
 31
0.0
  0
CIRCLE
  5
1AF
330
1E
100
AcDbEntity
  8
SIZE
  6
CONTINUOUS
 62
    30
100
AcDbCircle
 10
624.9999999999992
 20
-470.2444530000001
 30
0.0
 40
5.0
  0
LINE
  5
1B0
330
1E
100
AcDbEntity
  8
SIZE
  6
CONTINUOUS
 62
    30
100
AcDbLine
 10
619.9999999999992
 20
-470.2444530000001
 30
0.0
 11
614.9999999999992
 21
-470.2444530000001
 31
0.0
  0
TEXT
  5
1B1
330
1E
100
AcDbEntity
  8
SIZE
  6
CONTINUOUS
 62
    30
100
AcDbText
 10
-96.00000000000045
 20
-450.2444530000001
 30
0.0
 40
64.0
  1
1250
 41
0.9
 72
     1
 11
-0.0000000000004547
 21
-450.2444530000001
 31
0.0
100
AcDbText
  0
POINT
  5
1B2
330
1E
100
AcDbEntity
  8
DEFPOINTS
  6
CONTINUOUS
 62
     7
100
AcDbPoint
 10
-625.0
 20
-0.0000000000004547
 30
0.0
  0
POINT
  5
1B3
330
1E
100
AcDbEntity
  8
DEFPOINTS
  6
CONTINUOUS
 62
     7
100
AcDbPoint
 10
624.9999999999992
 20
-0.0000000000004547
 30
0.0
  0
POINT
  5
1B4
330
1E
100
AcDbEntity
  8
DEFPOINTS
  6
CONTINUOUS
 62
     7
100
AcDbPoint
 10
624.9999999999992
 20
-470.2444530000001
 30
0.0
  0
LINE
  5
1B5
330
1E
100
AcDbEntity
  8
SIZE
  6
CONTINUOUS
 62
    30
100
AcDbLine
 10
-497.0
 20
107.9999999999994
 30
0.0
 11
-497.0
 21
-626.4517531121874
 31
0.0
  0
LINE
  5
1B6
330
1E
100
AcDbEntity
  8
SIZE
  6
CONTINUOUS
 62
    30
100
AcDbLine
 10
496.9999999999977
 20
107.9999999999994
 30
0.0
 11
496.9999999999976
 21
-626.4517531121874
 31
0.0
  0
LINE
  5
1B7
330
1E
100
AcDbEntity
  8
SIZE
  6
CONTINUOUS
 62
    30
100
AcDbLine
 10
-487.0
 20
-596.4517531121872
 30
0.0
 11
486.9999999999977
 21
-596.4517531121872
 31
0.0
  0
CIRCLE
  5
1B8
330
1E
100
AcDbEntity
  8
SIZE
  6
CONTINUOUS
 62
    30
100
AcDbCircle
 10
-497.0
 20
-596.4517531121872
 30
0.0
 40
5.0
  0
LINE
  5
1B9
330
1E
100
AcDbEntity
  8
SIZE
  6
CONTINUOUS
 62
    30
100
AcDbLine
 10
-492.0
 20
-596.4517531121872
 30
0.0
 11
-487.0
 21
-596.4517531121872
 31
0.0
  0
CIRCLE
  5
1BA
330
1E
100
AcDbEntity
  8
SIZE
  6
CONTINUOUS
 62
    30
100
AcDbCircle
 10
496.9999999999976
 20
-596.4517531121872
 30
0.0
 40
5.0
  0
LINE
  5
1BB
330
1E
100
AcDbEntity
  8
SIZE
  6
CONTINUOUS
 62
    30
100
AcDbLine
 10
491.9999999999975
 20
-596.4517531121872
 30
0.0
 11
486.9999999999976
 21
-596.4517531121872
 31
0.0
  0
TEXT
  5
1BC
330
1E
100
AcDbEntity
  8
SIZE
  6
CONTINUOUS
 62
    30
100
AcDbText
 10
-75.42857142857261
 20
-576.4517531121872
 30
0.0
 40
64.0
  1
994
 41
0.9
 72
     1
 11
-0.0000000000011937
 21
-576.4517531121872
 31
0.0
100
AcDbText
  0
POINT
  5
1BD
330
1E
100
AcDbEntity
  8
DEFPOINTS
  6
CONTINUOUS
 62
     7
100
AcDbPoint
 10
-497.0
 20
127.9999999999995
 30
0.0
  0
POINT
  5
1BE
330
1E
100
AcDbEntity
  8
DEFPOINTS
  6
CONTINUOUS
 62
     7
100
AcDbPoint
 10
496.9999999999977
 20
127.9999999999995
 30
0.0
  0
POINT
  5
1BF
330
1E
100
AcDbEntity
  8
DEFPOINTS
  6
CONTINUOUS
 62
     7
100
AcDbPoint
 10
496.9999999999976
 20
-596.4517531121872
 30
0.0
  0
LINE
  5
1C0
330
1E
100
AcDbEntity
  8
SIZE
  6
CONTINUOUS
 62
    30
100
AcDbLine
 10
-605.0
 20
-20.00000000000044
 30
0.0
 11
-605.0
 21
-208.761564631879
 31
0.0
  0
LINE
  5
1C1
330
1E
100
AcDbEntity
  8
SIZE
  6
CONTINUOUS
 62
    30
100
AcDbLine
 10
604.999999999999
 20
-20.00000000000044
 30
0.0
 11
604.999999999999
 21
-208.761564631879
 31
0.0
  0
LINE
  5
1C2
330
1E
100
AcDbEntity
  8
SIZE
  6
CONTINUOUS
 62
    30
100
AcDbLine
 10
-595.0
 20
-178.761564631879
 30
0.0
 11
594.9999999999992
 21
-178.761564631879
 31
0.0
  0
CIRCLE
  5
1C3
330
1E
100
AcDbEntity
  8
SIZE
  6
CONTINUOUS
 62
    30
100
AcDbCircle
 10
-605.0
 20
-178.761564631879
 30
0.0
 40
5.0
  0
LINE
  5
1C4
330
1E
100
AcDbEntity
  8
SIZE
  6
CONTINUOUS
 62
    30
100
AcDbLine
 10
-600.0
 20
-178.761564631879
 30
0.0
 11
-595.0
 21
-178.761564631879
 31
0.0
  0
CIRCLE
  5
1C5
330
1E
100
AcDbEntity
  8
SIZE
  6
CONTINUOUS
 62
    30
100
AcDbCircle
 10
604.999999999999
 20
-178.761564631879
 30
0.0
 40
5.0
  0
LINE
  5
1C6
330
1E
100
AcDbEntity
  8
SIZE
  6
CONTINUOUS
 62
    30
100
AcDbLine
 10
599.999999999999
 20
-178.761564631879
 30
0.0
 11
594.9999999999989
 21
-178.761564631879
 31
0.0
  0
TEXT
  5
1C7
330
1E
100
AcDbEntity
  8
SIZE
  6
CONTINUOUS
 62
    30
100
AcDbText
 10
-90.51428571428616
 20
-158.761564631879
 30
0.0
 40
64.0
  1
1210
 41
0.9
 72
     1
 11
-0.0000000000004547
 21
-158.761564631879
 31
0.0
100
AcDbText
  0
POINT
  5
1C8
330
1E
100
AcDbEntity
  8
DEFPOINTS
  6
CONTINUOUS
 62
     7
100
AcDbPoint
 10
-605.0
 20
-0.0000000000004547
 30
0.0
  0
POINT
  5
1C9
330
1E
100
AcDbEntity
  8
DEFPOINTS
  6
CONTINUOUS
 62
     7
100
AcDbPoint
 10
604.999999999999
 20
-0.0000000000004547
 30
0.0
  0
POINT
  5
1CA
330
1E
100
AcDbEntity
  8
DEFPOINTS
  6
CONTINUOUS
 62
     7
100
AcDbPoint
 10
604.999999999999
 20
-178.761564631879
 30
0.0
  0
LINE
  5
1CB
330
1E
100
AcDbEntity
  8
SIZE
  6
CONTINUOUS
 62
    30
100
AcDbLine
 10
-473.0000000000008
 20
357.9999999999991
 30
0.0
 11
-473.0000000000008
 21
871.6490106821746
 31
0.0
  0
LINE
  5
1CC
330
1E
100
AcDbEntity
  8
SIZE
  6
CONTINUOUS
 62
    30
100
AcDbLine
 10
472.999999999998
 20
358.0
 30
0.0
 11
472.9999999999981
 21
871.6490106821746
 31
0.0
  0
LINE
  5
1CD
330
1E
100
AcDbEntity
  8
SIZE
  6
CONTINUOUS
 62
    30
100
AcDbLine
 10
-463.0000000000008
 20
841.6490106821745
 30
0.0
 11
462.9999999999982
 21
841.6490106821745
 31
0.0
  0
CIRCLE
  5
1CE
330
1E
100
AcDbEntity
  8
SIZE
  6
CONTINUOUS
 62
    30
100
AcDbCircle
 10
-473.0000000000008
 20
841.6490106821745
 30
0.0
 40
5.0
  0
LINE
  5
1CF
330
1E
100
AcDbEntity
  8
SIZE
  6
CONTINUOUS
 62
    30
100
AcDbLine
 10
-468.0000000000008
 20
841.6490106821745
 30
0.0
 11
-463.0000000000008
 21
841.6490106821745
 31
0.0
  0
CIRCLE
  5
1D0
330
1E
100
AcDbEntity
  8
SIZE
  6
CONTINUOUS
 62
    30
100
AcDbCircle
 10
472.9999999999981
 20
841.6490106821745
 30
0.0
 40
5.0
  0
LINE
  5
1D1
330
1E
100
AcDbEntity
  8
SIZE
  6
CONTINUOUS
 62
    30
100
AcDbLine
 10
467.9999999999981
 20
841.6490106821745
 30
0.0
 11
462.9999999999982
 21
841.6490106821745
 31
0.0
  0
TEXT
  5
1D2
330
1E
100
AcDbEntity
  8
SIZE
  6
CONTINUOUS
 62
    30
100
AcDbText
 10
-72.68571428571561
 20
861.6490106821746
 30
0.0
 40
64.0
  1
946
 41
0.9
 72
     1
 11
-0.0000000000013074
 21
861.6490106821746
 31
0.0
100
AcDbText
  0
POINT
  5
1D3
330
1E
100
AcDbEntity
  8
DEFPOINTS
  6
CONTINUOUS
 62
     7
100
AcDbPoint
 10
-473.0000000000008
 20
337.999999999999
 30
0.0
  0
POINT
  5
1D4
330
1E
100
AcDbEntity
  8
DEFPOINTS
  6
CONTINUOUS
 62
     7
100
AcDbPoint
 10
472.999999999998
 20
338.0
 30
0.0
  0
POINT
  5
1D5
330
1E
100
AcDbEntity
  8
DEFPOINTS
  6
CONTINUOUS
 62
     7
100
AcDbPoint
 10
472.9999999999981
 20
841.6490106821745
 30
0.0
  0
LINE
  5
1D6
330
1E
100
AcDbEntity
  8
SIZE
  6
CONTINUOUS
 62
    30
100
AcDbLine
 10
0.0000000000000012
 20
415.8640659999996
 30
0.0
 11
0.0000000000000222
 21
758.1090150111394
 31
0.0
  0
LINE
  5
1D7
330
1E
100
AcDbEntity
  8
SIZE
  6
CONTINUOUS
 62
    30
100
AcDbLine
 10
472.999999999998
 20
357.9999999999994
 30
0.0
 11
472.999999999998
 21
758.1090150111394
 31
0.0
  0
LINE
  5
1D8
330
1E
100
AcDbEntity
  8
SIZE
  6
CONTINUOUS
 62
    30
100
AcDbLine
 10
10.00000000000001
 20
728.1090150111395
 30
0.0
 11
462.9999999999982
 21
728.1090150111395
 31
0.0
  0
CIRCLE
  5
1D9
330
1E
100
AcDbEntity
  8
SIZE
  6
CONTINUOUS
 62
    30
100
AcDbCircle
 10
0.0000000000000203
 20
728.1090150111395
 30
0.0
 40
5.0
  0
LINE
  5
1DA
330
1E
100
AcDbEntity
  8
SIZE
  6
CONTINUOUS
 62
    30
100
AcDbLine
 10
5.00000000000002
 20
728.1090150111395
 30
0.0
 11
10.00000000000001
 21
728.1090150111395
 31
0.0
  0
CIRCLE
  5
1DB
330
1E
100
AcDbEntity
  8
SIZE
  6
CONTINUOUS
 62
    30
100
AcDbCircle
 10
472.999999999998
 20
728.1090150111395
 30
0.0
 40
5.0
  0
LINE
  5
1DC
330
1E
100
AcDbEntity
  8
SIZE
  6
CONTINUOUS
 62
    30
100
AcDbLine
 10
467.9999999999981
 20
728.1090150111395
 30
0.0
 11
462.999999999998
 21
728.1090150111395
 31
0.0
  0
TEXT
  5
1DD
330
1E
100
AcDbEntity
  8
SIZE
  6
CONTINUOUS
 62
    30
100
AcDbText
 10
162.4428571428561
 20
748.1090150111395
 30
0.0
 40
64.0
  1
473
 41
0.9
 72
     1
 11
236.4999999999989
 21
748.1090150111395
 31
0.0
100
AcDbText
  0
POINT
  5
1DE
330
1E
100
AcDbEntity
  8
DEFPOINTS
  6
CONTINUOUS
 62
     7
100
AcDbPoint
 10
0.0
 20
395.8640659999996
 30
0.0
  0
POINT
  5
1DF
330
1E
100
AcDbEntity
  8
DEFPOINTS
  6
CONTINUOUS
 62
     7
100
AcDbPoint
 10
472.999999999998
 20
337.9999999999995
 30
0.0
  0
POINT
  5
1E0
330
1E
100
AcDbEntity
  8
DEFPOINTS
  6
CONTINUOUS
 62
     7
100
AcDbPoint
 10
472.999999999998
 20
728.1090150111395
 30
0.0
  0
LINE
  5
1E1
330
1E
100
AcDbEntity
  8
SIZE
  6
CONTINUOUS
 62
    30
100
AcDbLine
 10
-183.0000000000017
 20
343.9999999999995
 30
0.0
 11
-183.0000000000016
 21
637.3869999999993
 31
0.0
  0
LINE
  5
1E2
330
1E
100
AcDbEntity
  8
SIZE
  6
CONTINUOUS
 62
    30
100
AcDbLine
 10
251.999999999998
 20
343.9999999999995
 30
0.0
 11
251.9999999999981
 21
637.3869999999993
 31
0.0
  0
LINE
  5
1E3
330
1E
100
AcDbEntity
  8
SIZE
  6
CONTINUOUS
 62
    30
100
AcDbLine
 10
-173.0000000000018
 20
607.3869999999992
 30
0.0
 11
241.9999999999981
 21
607.3869999999992
 31
0.0
  0
CIRCLE
  5
1E4
330
1E
100
AcDbEntity
  8
SIZE
  6
CONTINUOUS
 62
    30
100
AcDbCircle
 10
-183.0000000000016
 20
607.3869999999992
 30
0.0
 40
5.0
  0
LINE
  5
1E5
330
1E
100
AcDbEntity
  8
SIZE
  6
CONTINUOUS
 62
    30
100
AcDbLine
 10
-178.0000000000017
 20
607.3869999999992
 30
0.0
 11
-173.0000000000017
 21
607.3869999999992
 31
0.0
  0
CIRCLE
  5
1E6
330
1E
100
AcDbEntity
  8
SIZE
  6
CONTINUOUS
 62
    30
100
AcDbCircle
 10
251.9999999999981
 20
607.3869999999992
 30
0.0
 40
5.0
  0
LINE
  5
1E7
330
1E
100
AcDbEntity
  8
SIZE
  6
CONTINUOUS
 62
    30
100
AcDbLine
 10
246.9999999999981
 20
607.3869999999992
 30
0.0
 11
241.9999999999981
 21
607.3869999999992
 31
0.0
  0
TEXT
  5
1E8
330
1E
100
AcDbEntity
  8
SIZE
  6
CONTINUOUS
 62
    30
100
AcDbText
 10
-39.55714285714464
 20
627.3869999999992
 30
0.0
 40
64.0
  1
435
 41
0.9
 72
     1
 11
34.49999999999821
 21
627.3869999999992
 31
0.0
100
AcDbText
  0
POINT
  5
1E9
330
1E
100
AcDbEntity
  8
DEFPOINTS
  6
CONTINUOUS
 62
     7
100
AcDbPoint
 10
-183.0000000000017
 20
323.9999999999994
 30
0.0
  0
POINT
  5
1EA
330
1E
100
AcDbEntity
  8
DEFPOINTS
  6
CONTINUOUS
 62
     7
100
AcDbPoint
 10
251.999999999998
 20
323.9999999999994
 30
0.0
  0
POINT
  5
1EB
330
1E
100
AcDbEntity
  8
DEFPOINTS
  6
CONTINUOUS
 62
     7
100
AcDbPoint
 10
251.9999999999981
 20
607.3869999999992
 30
0.0
  0
LINE
  5
1EC
330
1E
100
AcDbEntity
  8
OUTLINE
  6
CONTINUOUS
 62
     3
100
AcDbLine
 10
472.999999999998
 20
338.0
 30
0.0
 11
-473.0
 21
337.999999999999
 31
0.0
  0
LINE
  5
1ED
330
1E
100
AcDbEntity
  8
OUTLINE
  6
CONTINUOUS
 62
     3
100
AcDbLine
 10
592.9999999999997
 20
44.99999999999909
 30
0.0
 11
-593.0000000000007
 21
44.99999999999909
 31
0.0
  0
LINE
  5
1EE
330
1E
100
AcDbEntity
  8
OUTLINE
  6
CONTINUOUS
 62
     3
100
AcDbLine
 10
624.9999999999996
 20
0.0
 30
0.0
 11
-625.0
 21
0.0
 31
0.0
  0
LINE
  5
1EF
330
1E
100
AcDbEntity
  8
OUTLINE
  6
CONTINUOUS
 62
     3
100
AcDbLine
 10
617.9999999999997
 20
-8.0
 30
0.0
 11
-618.0
 21
-8.0
 31
0.0
  0
LINE
  5
1F0
330
1E
100
AcDbEntity
  8
OUTLINE
  6
CONTINUOUS
 62
     3
100
AcDbLine
 10
-473.0
 20
148.0
 30
0.0
 11
-523.0
 21
148.0
 31
0.0
  0
LINE
  5
1F1
330
1E
100
AcDbEntity
  8
OUTLINE
  6
CONTINUOUS
 62
     3
100
AcDbLine
 10
-473.0
 20
145.6999999999989
 30
0.0
 11
-523.0
 21
145.6999999999989
 31
0.0
  0
LINE
  5
1F2
330
1E
100
AcDbEntity
  8
OUTLINE
  6
CONTINUOUS
 62
     3
100
AcDbLine
 10
-593.0
 20
45.0
 30
0.0
 11
-593.0
 21
0.0
 31
0.0
  0
ARC
  5
1F3
330
1E
100
AcDbEntity
  8
OUTLINE
  6
CONTINUOUS
 62
     3
100
AcDbCircle
 10
-618.0
 20
-1.0
 30
0.0
 40
7.0
100
AcDbArc
 50
180.0
 51
270.0
  0
LINE
  5
1F4
330
1E
100
AcDbEntity
  8
OUTLINE
  6
CONTINUOUS
 62
     3
100
AcDbLine
 10
-625.0
 20
-1.0
 30
0.0
 11
-625.0
 21
0.0
 31
0.0
  0
LINE
  5
1F5
330
1E
100
AcDbEntity
  8
OUTLINE
  6
CONTINUOUS
 62
     3
100
AcDbLine
 10
-523.0
 20
148.0
 30
0.0
 11
-523.0
 21
145.6999999999998
 31
0.0
  0
LINE
  5
1F6
330
1E
100
AcDbEntity
  8
OUTLINE
  6
CONTINUOUS
 62
     3
100
AcDbLine
 10
-473.0000000000017
 20
338.0
 30
0.0
 11
-473.0000000000017
 21
45.0
 31
0.0
  0
LINE
  5
1F7
330
1E
100
AcDbEntity
  8
OUTLINE
  6
CONTINUOUS
 62
     3
100
AcDbLine
 10
586.9999999999985
 20
237.999999999998
 30
0.0
 11
586.9999999999976
 21
187.9999999999991
 31
0.0
  0
LINE
  5
1F8
330
1E
100
AcDbEntity
  8
OUTLINE
  6
CONTINUOUS
 62
     3
100
AcDbLine
 10
472.999999999998
 20
338.0
 30
0.0
 11
472.999999999998
 21
45.0
 31
0.0
  0
ARC
  5
1F9
330
1E
100
AcDbEntity
  8
OUTLINE
  6
CONTINUOUS
 62
     3
100
AcDbCircle
 10
617.9999999999997
 20
-1.000000000000909
 30
0.0
 40
7.0
100
AcDbArc
 50
270.0
 51
0.0
  0
LINE
  5
1FA
330
1E
100
AcDbEntity
  8
OUTLINE
  6
CONTINUOUS
 62
     3
100
AcDbLine
 10
592.9999999999997
 20
44.99999999999909
 30
0.0
 11
592.9999999999997
 21
-0.0000000000009095
 31
0.0
  0
LINE
  5
1FB
330
1E
100
AcDbEntity
  8
OUTLINE
  6
CONTINUOUS
 62
     3
100
AcDbLine
 10
522.9999999999977
 20
148.0
 30
0.0
 11
472.999999999998
 21
148.0
 31
0.0
  0
LINE
  5
1FC
330
1E
100
AcDbEntity
  8
OUTLINE
  6
CONTINUOUS
 62
     3
100
AcDbLine
 10
472.999999999998
 20
156.0799999999999
 30
0.0
 11
586.9999999999985
 21
188.0
 31
0.0
  0
LINE
  5
1FD
330
1E
100
AcDbEntity
  8
OUTLINE
  6
CONTINUOUS
 62
     3
100
AcDbLine
 10
522.9999999999977
 20
145.6999999999989
 30
0.0
 11
472.999999999998
 21
145.6999999999989
 31
0.0
  0
LINE
  5
1FE
330
1E
100
AcDbEntity
  8
OUTLINE
  6
CONTINUOUS
 62
     3
100
AcDbLine
 10
502.9999999999977
 20
84.49999999999906
 30
0.0
 11
502.9999999999977
 21
59.49999999999909
 31
0.0
  0
LINE
  5
1FF
330
1E
100
AcDbEntity
  8
OUTLINE
  6
CONTINUOUS
 62
     3
100
AcDbLine
 10
472.999999999998
 20
59.49999999999909
 30
0.0
 11
502.9999999999977
 21
59.49999999999818
 31
0.0
  0
LINE
  5
200
330
1E
100
AcDbEntity
  8
OUTLINE
  6
CONTINUOUS
 62
     3
100
AcDbLine
 10
472.999999999998
 20
84.49999999999906
 30
0.0
 11
502.9999999999977
 21
84.49999999999818
 31
0.0
  0
LINE
  5
201
330
1E
100
AcDbEntity
  8
OUTLINE
  6
CONTINUOUS
 62
     3
100
AcDbLine
 10
522.9999999999977
 20
148.0
 30
0.0
 11
522.9999999999977
 21
145.6999999999998
 31
0.0
  0
LINE
  5
202
330
1E
100
AcDbEntity
  8
OUTLINE
  6
CONTINUOUS
 62
     3
100
AcDbLine
 10
624.9999999999996
 20
-0.0000000000009095
 30
0.0
 11
624.9999999999996
 21
-1.000000000000909
 31
0.0
  0
LINE
  5
203
330
1E
100
AcDbEntity
  8
OUTLINE
  6
CONTINUOUS
 62
     3
100
AcDbLine
 10
472.999999999998
 20
237.999999999998
 30
0.0
 11
586.9999999999985
 21
237.999999999998
 31
0.0
  0
LINE
  5
204
330
1E
100
AcDbEntity
  8
NOTE
  6
CONTINUOUS
 62
     4
100
AcDbLine
 10
992.6977658081492
 20
583.7848652465031
 30
0.0
 11
2089.287626808148
 21
583.7848652465031
 31
0.0
  0
LINE
  5
205
330
1E
100
AcDbEntity
  8
NOTE
  6
CONTINUOUS
 62
     4
100
AcDbLine
 10
1042.757627535491
 20
-367.5340543476385
 30
0.0
 11
1961.97081453549
 21
-367.5340543476385
 31
0.0
  0
TEXT
  5
206
330
1E
100
AcDbEntity
  8
NOTE
  6
CONTINUOUS
 62
     4
100
AcDbText
 10
1376.056577104844
 20
-644.0634029377316
 30
0.0
 40
64.0
  1
The other outdoor unit : %%c15.88
 41
0.9
100
AcDbText
  0
TEXT
  5
207
330
1E
100
AcDbEntity
  8
NOTE
  6
CONTINUOUS
 62
     4
100
AcDbText
 10
1482.3843994994
 20
330.5794011149742
 30
0.0
 40
64.0
  1
The other outdoor unit : %%c9.52
 41
0.9
100
AcDbText
  0
TEXT
  5
208
330
1E
100
AcDbEntity
  8
NOTE
  6
CONTINUOUS
 62
     4
100
AcDbText
 10
1385.41721107083
 20
-505.5119828291672
 30
0.0
 40
64.0
  1
R410A outdoor unit : %%c12.7
 41
0.9
100
AcDbText
  0
TEXT
  5
209
330
1E
100
AcDbEntity
  8
NOTE
  6
CONTINUOUS
 62
     4
100
AcDbText
 10
1492.9607376547
 20
456.2398299553538
 30
0.0
 40
64.0
  1
R410A outdoor unit : %%c6.35
 41
0.9
100
AcDbText
  0
TEXT
  5
20A
330
1E
100
AcDbEntity
  8
NOTE
  6
CONTINUOUS
 62
     4
100
AcDbText
 10
1490.521005300388
 20
627.8285735749355
 30
0.0
 40
64.0
  1
RL %%c6.35
 41
0.9
100
AcDbText
  0
TEXT
  5
20B
330
1E
100
AcDbEntity
  8
NOTE
  6
CONTINUOUS
 62
     4
100
AcDbText
 10
1388.478042652101
 20
-330.7698451723418
 30
0.0
 40
64.0
  1
RG %%c12.7
 41
0.9
100
AcDbText
  0
LINE
  5
20C
330
1E
100
AcDbEntity
  8
SIZE
  6
CONTINUOUS
 62
    30
100
AcDbLine
 10
-183.0000000000017
 20
195.999999999999
 30
0.0
 11
-183.0000000000017
 21
222.0143443572359
 31
0.0
  0
LINE
  5
20D
330
1E
100
AcDbEntity
  8
SIZE
  6
CONTINUOUS
 62
    30
100
AcDbLine
 10
251.999999999998
 20
195.9999999999985
 30
0.0
 11
251.999999999998
 21
222.0143443572359
 31
0.0
  0
LINE
  5
20E
330
1E
100
AcDbEntity
  8
SIZE
  6
CONTINUOUS
 62
    30
100
AcDbLine
 10
-173.0000000000018
 20
192.0143443572359
 30
0.0
 11
241.999999999998
 21
192.0143443572359
 31
0.0
  0
CIRCLE
  5
20F
330
1E
100
AcDbEntity
  8
SIZE
  6
CONTINUOUS
 62
    30
100
AcDbCircle
 10
-183.0000000000017
 20
192.0143443572359
 30
0.0
 40
5.0
  0
LINE
  5
210
330
1E
100
AcDbEntity
  8
SIZE
  6
CONTINUOUS
 62
    30
100
AcDbLine
 10
-178.0000000000018
 20
192.0143443572359
 30
0.0
 11
-173.0000000000018
 21
192.0143443572359
 31
0.0
  0
CIRCLE
  5
211
330
1E
100
AcDbEntity
  8
SIZE
  6
CONTINUOUS
 62
    30
100
AcDbCircle
 10
251.999999999998
 20
192.0143443572359
 30
0.0
 40
5.0
  0
LINE
  5
212
330
1E
100
AcDbEntity
  8
SIZE
  6
CONTINUOUS
 62
    30
100
AcDbLine
 10
246.9999999999981
 20
192.0143443572359
 30
0.0
 11
241.999999999998
 21
192.0143443572359
 31
0.0
  0
TEXT
  5
213
330
1E
100
AcDbEntity
  8
SIZE
  6
CONTINUOUS
 62
    30
100
AcDbText
 10
-39.55714285714467
 20
212.014344357236
 30
0.0
 40
64.0
  1
435
 41
0.9
 72
     1
 11
34.49999999999818
 21
212.014344357236
 31
0.0
100
AcDbText
  0
POINT
  5
214
330
1E
100
AcDbEntity
  8
DEFPOINTS
  6
CONTINUOUS
 62
     7
100
AcDbPoint
 10
-183.0000000000017
 20
175.999999999999
 30
0.0
  0
POINT
  5
215
330
1E
100
AcDbEntity
  8
DEFPOINTS
  6
CONTINUOUS
 62
     7
100
AcDbPoint
 10
251.999999999998
 20
175.9999999999985
 30
0.0
  0
POINT
  5
216
330
1E
100
AcDbEntity
  8
DEFPOINTS
  6
CONTINUOUS
 62
     7
100
AcDbPoint
 10
251.999999999998
 20
192.0143443572359
 30
0.0
  0
ENDSEC
  0
SECTION
  2
OBJECTS
  0
DICTIONARY
  5
C
330
0
100
AcDbDictionary
  3
ACAD_GROUP
350
D
  3
ACAD_LAYOUT
350
19
  3
ACAD_MLINESTYLE
350
16
  3
ACAD_PLOTSETTINGS
350
18
  3
ACAD_PLOTSTYLENAME
350
E
  3
ACDBHEADERROUNDTRIPXREC
350
219
  0
DICTIONARY
  5
23C
330
1E
100
AcDbDictionary
280
     1
  3
ACAD_LAYOUTSELFREF
360
23D
  0
DICTIONARY
  5
23A
330
1A
100
AcDbDictionary
280
     1
  3
ACAD_LAYOUTSELFREF
360
23B
  0
DICTIONARY
  5
D
102
{ACAD_REACTORS
330
C
102
}
330
C
100
AcDbDictionary
  0
DICTIONARY
  5
19
102
{ACAD_REACTORS
330
C
102
}
330
C
100
AcDbDictionary
  0
DICTIONARY
  5
16
102
{ACAD_REACTORS
330
C
102
}
330
C
100
AcDbDictionary
  3
STANDARD
350
17
  0
DICTIONARY
  5
18
102
{ACAD_REACTORS
330
C
102
}
330
C
100
AcDbDictionary
  0
ACDBDICTIONARYWDFLT
  5
E
102
{ACAD_REACTORS
330
C
102
}
330
C
100
AcDbDictionary
281
     1
  3
Normal
350
F
100
AcDbDictionaryWithDefault
340
F
  0
DICTIONARY
  5
219
102
{ACAD_REACTORS
330
C
102
}
330
C
100
AcDbDictionary
  3
CEPSNTYPE
350
223
  3
DIMSTYLEDATA
350
227
  3
FINGERPRINTGUID
350
224
  3
HYPERLINKBASE
350
21C
  3
INSUNITS
350
222
  3
LAYOUTDICT
350
21E
  3
LWETCUNION
350
221
  3
PLOTSETDICT
350
21F
  3
PLOTSTYLNAMDICT
350
220
  3
PSVPSCALE
350
226
  3
PUCSBASE
350
22A
  3
PUCSORGBACK
350
230
  3
PUCSORGBOTTOM
350
22C
  3
PUCSORGFRONT
350
22F
  3
PUCSORGLEFT
350
22D
  3
PUCSORGRIGHT
350
22E
  3
PUCSORGTOP
350
22B
  3
PUCSORTHOREF
350
228
  3
PUCSORTHOVIEW
350
229
  3
STYLESHEET
350
21D
  3
TSTACKALIGN
350
21A
  3
TSTACKSIZE
350
21B
  3
UCSBASE
350
233
  3
UCSORGBACK
350
239
  3
UCSORGBOTTOM
350
235
  3
UCSORGFRONT
350
238
  3
UCSORGLEFT
350
236
  3
UCSORGRIGHT
350
237
  3
UCSORGTOP
350
234
  3
UCSORTHOREF
350
231
  3
UCSORTHOVIEW
350
232
  3
VERSIONGUID
350
225
  0
XRECORD
  5
23D
102
{ACAD_REACTORS
330
23C
102
}
330
23C
100
AcDbXrecord
340
1E
  0
XRECORD
  5
23B
102
{ACAD_REACTORS
330
23A
102
}
330
23A
100
AcDbXrecord
340
1A
  0
MLINESTYLE
  5
17
102
{ACAD_REACTORS
330
16
102
}
330
16
100
AcDbMlineStyle
  2
STANDARD
 70
     0
  3

 62
   256
 51
90.0
 52
90.0
 71
     2
 49
0.5
 62
   256
  6
BYLAYER
 49
-0.5
 62
   256
  6
BYLAYER
  0
ACDBPLACEHOLDER
  5
F
102
{ACAD_REACTORS
330
E
102
}
330
E
100
AcDbPlaceHolder
280
     0
  0
XRECORD
  5
223
102
{ACAD_REACTORS
330
219
102
}
330
219
100
AcDbXrecord
 90
        0
  0
XRECORD
  5
227
102
{ACAD_REACTORS
330
219
102
}
330
219
100
AcDbXrecord
1000
DSTYLE
1002
{
1070
   341
340
39
1070
   342
340
39
1070
   343
340
39
1070
   344
340
34
1002
}
  0
XRECORD
  5
224
102
{ACAD_REACTORS
330
219
102
}
330
219
100
AcDbXrecord
  1
{F1304E2D-0459-415F-A78C-09DB5FA69986}
  0
XRECORD
  5
21C
102
{ACAD_REACTORS
330
219
102
}
330
219
100
AcDbXrecord
  1

  0
XRECORD
  5
222
102
{ACAD_REACTORS
330
219
102
}
330
219
100
AcDbXrecord
 90
        0
  0
XRECORD
  5
21E
102
{ACAD_REACTORS
330
219
102
}
330
219
100
AcDbXrecord
340
19
  0
XRECORD
  5
221
102
{ACAD_REACTORS
330
219
102
}
330
219
100
AcDbXrecord
 90
    10781
  0
XRECORD
  5
21F
102
{ACAD_REACTORS
330
219
102
}
330
219
100
AcDbXrecord
340
18
  0
XRECORD
  5
220
102
{ACAD_REACTORS
330
219
102
}
330
219
100
AcDbXrecord
340
E
  0
XRECORD
  5
226
102
{ACAD_REACTORS
330
219
102
}
330
219
100
AcDbXrecord
 40
0.0
  0
XRECORD
  5
22A
102
{ACAD_REACTORS
330
219
102
}
330
219
100
AcDbXrecord
340
0
  0
XRECORD
  5
230
102
{ACAD_REACTORS
330
219
102
}
330
219
100
AcDbXrecord
 10
0.0
 20
0.0
 30
0.0
  0
XRECORD
  5
22C
102
{ACAD_REACTORS
330
219
102
}
330
219
100
AcDbXrecord
 10
0.0
 20
0.0
 30
0.0
  0
XRECORD
  5
22F
102
{ACAD_REACTORS
330
219
102
}
330
219
100
AcDbXrecord
 10
0.0
 20
0.0
 30
0.0
  0
XRECORD
  5
22D
102
{ACAD_REACTORS
330
219
102
}
330
219
100
AcDbXrecord
 10
0.0
 20
0.0
 30
0.0
  0
XRECORD
  5
22E
102
{ACAD_REACTORS
330
219
102
}
330
219
100
AcDbXrecord
 10
0.0
 20
0.0
 30
0.0
  0
XRECORD
  5
22B
102
{ACAD_REACTORS
330
219
102
}
330
219
100
AcDbXrecord
 10
0.0
 20
0.0
 30
0.0
  0
XRECORD
  5
228
102
{ACAD_REACTORS
330
219
102
}
330
219
100
AcDbXrecord
340
0
  0
XRECORD
  5
229
102
{ACAD_REACTORS
330
219
102
}
330
219
100
AcDbXrecord
 70
     0
  0
XRECORD
  5
21D
102
{ACAD_REACTORS
330
219
102
}
330
219
100
AcDbXrecord
  1

  0
XRECORD
  5
21A
102
{ACAD_REACTORS
330
219
102
}
330
219
100
AcDbXrecord
 90
        1
  0
XRECORD
  5
21B
102
{ACAD_REACTORS
330
219
102
}
330
219
100
AcDbXrecord
 90
       70
  0
XRECORD
  5
233
102
{ACAD_REACTORS
330
219
102
}
330
219
100
AcDbXrecord
340
0
  0
XRECORD
  5
239
102
{ACAD_REACTORS
330
219
102
}
330
219
100
AcDbXrecord
 10
0.0
 20
0.0
 30
0.0
  0
XRECORD
  5
235
102
{ACAD_REACTORS
330
219
102
}
330
219
100
AcDbXrecord
 10
0.0
 20
0.0
 30
0.0
  0
XRECORD
  5
238
102
{ACAD_REACTORS
330
219
102
}
330
219
100
AcDbXrecord
 10
0.0
 20
0.0
 30
0.0
  0
XRECORD
  5
236
102
{ACAD_REACTORS
330
219
102
}
330
219
100
AcDbXrecord
 10
0.0
 20
0.0
 30
0.0
  0
XRECORD
  5
237
102
{ACAD_REACTORS
330
219
102
}
330
219
100
AcDbXrecord
 10
0.0
 20
0.0
 30
0.0
  0
XRECORD
  5
234
102
{ACAD_REACTORS
330
219
102
}
330
219
100
AcDbXrecord
 10
0.0
 20
0.0
 30
0.0
  0
XRECORD
  5
231
102
{ACAD_REACTORS
330
219
102
}
330
219
100
AcDbXrecord
340
0
  0
XRECORD
  5
232
102
{ACAD_REACTORS
330
219
102
}
330
219
100
AcDbXrecord
 70
     0
  0
XRECORD
  5
225
102
{ACAD_REACTORS
330
219
102
}
330
219
100
AcDbXrecord
  1
{746BEED5-3C3D-4DE1-B202-A388FAFC2059}
  0
ENDSEC
  0
EOF
