  0
SECTION
  2
HEADER
  9
$ACADVER
  1
AC1014
  9
$ACADMAINTVER
 70
     9
  9
$DWGCODEPAGE
  3
ANSI_932
  9
$INSBASE
 10
0.0
 20
0.0
 30
0.0
  9
$EXTMIN
 10
-2889.287626808141
 20
-736.8342382170757
 30
0.0
  9
$EXTMAX
 10
1377.827487815831
 20
1158.334544052153
 30
0.0
  9
$LIMMIN
 10
-4200.0
 20
-2970.0
  9
$LIMMAX
 10
4200.0
 20
2970.0
  9
$ORTHOMODE
 70
     0
  9
$REGENMODE
 70
     1
  9
$FILLMODE
 70
     1
  9
$QTEXTMODE
 70
     0
  9
$MIRRTEXT
 70
     0
  9
$DRAGMODE
 70
     2
  9
$LTSCALE
 40
20.0
  9
$OSMODE
 70
    37
  9
$ATTMODE
 70
     1
  9
$TEXTSIZE
 40
64.0
  9
$TRACEWID
 40
0.05
  9
$TEXTSTYLE
  7
STANDARD
  9
$CLAYER
  8
0
  9
$CELTYPE
  6
CONTINUOUS
  9
$CECOLOR
 62
     7
  9
$CELTSCALE
 40
1.0
  9
$DELOBJ
 70
     1
  9
$DISPSILH
 70
     0
  9
$DIMSCALE
 40
1.0
  9
$DIMASZ
 40
10.0
  9
$DIMEXO
 40
20.0
  9
$DIMDLI
 40
200.0
  9
$DIMRND
 40
0.0
  9
$DIMDLE
 40
0.0
  9
$DIMEXE
 40
30.0
  9
$DIMTP
 40
0.0
  9
$DIMTM
 40
0.0
  9
$DIMTXT
 40
64.0
  9
$DIMCEN
 40
0.0
  9
$DIMTSZ
 40
0.0
  9
$DIMTOL
 70
     0
  9
$DIMLIM
 70
     0
  9
$DIMTIH
 70
     0
  9
$DIMTOH
 70
     0
  9
$DIMSE1
 70
     0
  9
$DIMSE2
 70
     0
  9
$DIMTAD
 70
     1
  9
$DIMZIN
 70
     8
  9
$DIMBLK
  1
DOTBLANK
  9
$DIMASO
 70
     1
  9
$DIMSHO
 70
     0
  9
$DIMPOST
  1

  9
$DIMAPOST
  1

  9
$DIMALT
 70
     0
  9
$DIMALTD
 70
     2
  9
$DIMALTF
 40
25.4
  9
$DIMLFAC
 40
1.0
  9
$DIMTOFL
 70
     1
  9
$DIMTVP
 40
0.0
  9
$DIMTIX
 70
     1
  9
$DIMSOXD
 70
     0
  9
$DIMSAH
 70
     0
  9
$DIMBLK1
  1
DOTBLANK
  9
$DIMBLK2
  1
ORIGIN
  9
$DIMSTYLE
  2
STANDARD
  9
$DIMCLRD
 70
     0
  9
$DIMCLRE
 70
     0
  9
$DIMCLRT
 70
     0
  9
$DIMTFAC
 40
1.0
  9
$DIMGAP
 40
0.09
  9
$DIMJUST
 70
     0
  9
$DIMSD1
 70
     0
  9
$DIMSD2
 70
     0
  9
$DIMTOLJ
 70
     1
  9
$DIMTZIN
 70
     0
  9
$DIMALTZ
 70
     0
  9
$DIMALTTZ
 70
     0
  9
$DIMFIT
 70
     3
  9
$DIMUPT
 70
     0
  9
$DIMUNIT
 70
     2
  9
$DIMDEC
 70
     4
  9
$DIMTDEC
 70
     4
  9
$DIMALTU
 70
     2
  9
$DIMALTTD
 70
     2
  9
$DIMTXSTY
  7
STANDARD
  9
$DIMAUNIT
 70
     0
  9
$LUNITS
 70
     2
  9
$LUPREC
 70
     4
  9
$SKETCHINC
 40
0.1
  9
$FILLETRAD
 40
0.0
  9
$AUNITS
 70
     1
  9
$AUPREC
 70
     3
  9
$MENU
  1
ACAD
  9
$ELEVATION
 40
0.0
  9
$PELEVATION
 40
0.0
  9
$THICKNESS
 40
0.0
  9
$LIMCHECK
 70
     0
  9
$BLIPMODE
 70
     0
  9
$CHAMFERA
 40
0.0
  9
$CHAMFERB
 40
0.0
  9
$CHAMFERC
 40
0.0
  9
$CHAMFERD
 40
0.0
  9
$SKPOLY
 70
     0
  9
$TDCREATE
 40
2449761.493622685
  9
$TDUPDATE
 40
2453973.712579282
  9
$TDINDWG
 40
1.0298635185
  9
$TDUSRTIMER
 40
1.0298633449
  9
$USRTIMER
 70
     1
  9
$ANGBASE
 50
0.0
  9
$ANGDIR
 70
     0
  9
$PDMODE
 70
    35
  9
$PDSIZE
 40
100.0
  9
$PLINEWID
 40
0.0
  9
$COORDS
 70
     2
  9
$SPLFRAME
 70
     0
  9
$SPLINETYPE
 70
     6
  9
$SPLINESEGS
 70
     8
  9
$ATTDIA
 70
     0
  9
$ATTREQ
 70
     1
  9
$HANDLING
 70
-16383
  9
$HANDSEED
  5
240
  9
$SURFTAB1
 70
     6
  9
$SURFTAB2
 70
     6
  9
$SURFTYPE
 70
     6
  9
$SURFU
 70
     6
  9
$SURFV
 70
     6
  9
$UCSNAME
  2

  9
$UCSORG
 10
0.0
 20
0.0
 30
0.0
  9
$UCSXDIR
 10
1.0
 20
0.0
 30
0.0
  9
$UCSYDIR
 10
0.0
 20
1.0
 30
0.0
  9
$PUCSNAME
  2

  9
$PUCSORG
 10
0.0
 20
0.0
 30
0.0
  9
$PUCSXDIR
 10
1.0
 20
0.0
 30
0.0
  9
$PUCSYDIR
 10
0.0
 20
1.0
 30
0.0
  9
$USERI1
 70
     0
  9
$USERI2
 70
     0
  9
$USERI3
 70
     0
  9
$USERI4
 70
     0
  9
$USERI5
 70
     0
  9
$USERR1
 40
20.0
  9
$USERR2
 40
0.0
  9
$USERR3
 40
0.0
  9
$USERR4
 40
0.0
  9
$USERR5
 40
0.0
  9
$WORLDVIEW
 70
     1
  9
$SHADEDGE
 70
     3
  9
$SHADEDIF
 70
    70
  9
$TILEMODE
 70
     1
  9
$MAXACTVP
 70
    64
  9
$PINSBASE
 10
0.0
 20
0.0
 30
0.0
  9
$PLIMCHECK
 70
     0
  9
$PEXTMIN
 10
1.000000000000000E+20
 20
1.000000000000000E+20
 30
1.000000000000000E+20
  9
$PEXTMAX
 10
-1.000000000000000E+20
 20
-1.000000000000000E+20
 30
-1.000000000000000E+20
  9
$PLIMMIN
 10
0.0
 20
0.0
  9
$PLIMMAX
 10
12.0
 20
9.0
  9
$UNITMODE
 70
     0
  9
$VISRETAIN
 70
     1
  9
$PLINEGEN
 70
     0
  9
$PSLTSCALE
 70
     1
  9
$TREEDEPTH
 70
  3020
  9
$PICKSTYLE
 70
     0
  9
$CMLSTYLE
  2
STANDARD
  9
$CMLJUST
 70
     0
  9
$CMLSCALE
 40
1.0
  9
$PROXYGRAPHICS
 70
     1
  9
$MEASUREMENT
 70
     0
  0
ENDSEC
  0
SECTION
  2
CLASSES
  0
CLASS
  1
ACDBDICTIONARYWDFLT
  2
AcDbDictionaryWithDefault
  3
AutoCAD 2000
 90
        0
280
     0
281
     0
  0
CLASS
  1
ACDBPLACEHOLDER
  2
AcDbPlaceHolder
  3
AutoCAD 2000
 90
        0
280
     0
281
     0
  0
CLASS
  1
LAYOUT
  2
AcDbLayout
  3
AutoCAD 2000
 90
        0
280
     0
281
     0
  0
CLASS
  1
LONG_TRANSACTION
  2
AcDbLongTransaction
  3
AutoCAD 2000
 90
        0
280
     0
281
     0
  0
CLASS
  1
LWPOLYLINE
  2
AcDbPolyline
  3
AutoCAD 2000
 90
        0
280
     0
281
     1
  0
CLASS
  1
HATCH
  2
AcDbHatch
  3
AutoCAD 2000
 90
        0
280
     0
281
     1
  0
CLASS
  1
XRECORD
  2
AcDbXrecord
  3
AutoCAD 2000
 90
        0
280
     0
281
     0
  0
ENDSEC
  0
SECTION
  2
TABLES
  0
TABLE
  2
VPORT
  5
8
330
0
100
AcDbSymbolTable
 70
     2
  0
VPORT
  5
21A
330
8
100
AcDbSymbolTableRecord
100
AcDbViewportTableRecord
  2
*ACTIVE
 70
     0
 10
0.0
 20
0.0
 11
1.0
 21
1.0
 12
-610.065119828122
 22
210.9311496126101
 13
0.0
 23
0.0
 14
50.0
 24
50.0
 15
100.0
 25
100.0
 16
0.0
 26
0.0
 36
1.0
 17
0.0
 27
0.0
 37
0.0
 40
2762.895969283038
 41
1.657997399219765
 42
50.0
 43
0.0
 44
0.0
 50
0.0
 51
0.0
 71
     0
 72
  1000
 73
     1
 74
     0
 75
     0
 76
     0
 77
     0
 78
     0
  0
ENDTAB
  0
TABLE
  2
LTYPE
  5
5
330
0
100
AcDbSymbolTable
 70
     2
  0
LTYPE
  5
13
330
5
100
AcDbSymbolTableRecord
100
AcDbLinetypeTableRecord
  2
BYBLOCK
 70
     0
  3

 72
    65
 73
     0
 40
0.0
  0
LTYPE
  5
14
330
5
100
AcDbSymbolTableRecord
100
AcDbLinetypeTableRecord
  2
BYLAYER
 70
     0
  3

 72
    65
 73
     0
 40
0.0
  0
LTYPE
  5
15
330
5
100
AcDbSymbolTableRecord
100
AcDbLinetypeTableRecord
  2
CONTINUOUS
 70
     0
  3
????
 72
    65
 73
     0
 40
0.0
  0
LTYPE
  5
22
330
5
100
AcDbSymbolTableRecord
100
AcDbLinetypeTableRecord
  2
DASHDOT
 70
     0
  3
____ _ ____ _ ____ _ ____ _ ____ _ ____ _ ____
 72
    65
 73
     4
 40
5.5
 49
4.0
 74
     0
 49
-0.6
 74
     0
 49
0.3
 74
     0
 49
-0.6
 74
     0
  0
ENDTAB
  0
TABLE
  2
LAYER
  5
2
330
0
100
AcDbSymbolTable
 70
    12
  0
LAYER
  5
10
330
2
100
AcDbSymbolTableRecord
100
AcDbLayerTableRecord
  2
0
 70
     0
 62
     7
  6
CONTINUOUS
  0
LAYER
  5
23
330
2
100
AcDbSymbolTableRecord
100
AcDbLayerTableRecord
  2
OUTLINE
 70
     0
 62
     3
  6
CONTINUOUS
  0
LAYER
  5
24
330
2
100
AcDbSymbolTableRecord
100
AcDbLayerTableRecord
  2
DETAIL
 70
     0
 62
     5
  6
CONTINUOUS
  0
LAYER
  5
25
330
2
100
AcDbSymbolTableRecord
100
AcDbLayerTableRecord
  2
BASIS
 70
     0
 62
     6
  6
DASHDOT
  0
LAYER
  5
26
330
2
100
AcDbSymbolTableRecord
100
AcDbLayerTableRecord
  2
SIZE
 70
     0
 62
    30
  6
CONTINUOUS
  0
LAYER
  5
27
330
2
100
AcDbSymbolTableRecord
100
AcDbLayerTableRecord
  2
NOTE
 70
     0
 62
     4
  6
CONTINUOUS
  0
LAYER
  5
28
330
2
100
AcDbSymbolTableRecord
100
AcDbLayerTableRecord
  2
ARRANGE
 70
     0
 62
     1
  6
CONTINUOUS
  0
LAYER
  5
29
330
2
100
AcDbSymbolTableRecord
100
AcDbLayerTableRecord
  2
FIX
 70
     0
 62
    11
  6
CONTINUOUS
  0
LAYER
  5
2A
330
2
100
AcDbSymbolTableRecord
100
AcDbLayerTableRecord
  2
SERVICESPACE
 70
     0
 62
     2
  6
DASHDOT
  0
LAYER
  5
2B
330
2
100
AcDbSymbolTableRecord
100
AcDbLayerTableRecord
  2
ETC
 70
     0
 62
    61
  6
CONTINUOUS
  0
LAYER
  5
2C
330
2
100
AcDbSymbolTableRecord
100
AcDbLayerTableRecord
  2
SYMBOLLINE
 70
     0
 62
    15
  6
CONTINUOUS
  0
LAYER
  5
2D
330
2
100
AcDbSymbolTableRecord
100
AcDbLayerTableRecord
  2
DEFPOINTS
 70
     0
 62
     7
  6
CONTINUOUS
  0
ENDTAB
  0
TABLE
  2
STYLE
  5
3
330
0
100
AcDbSymbolTable
 70
     2
  0
STYLE
  5
11
330
3
100
AcDbSymbolTableRecord
100
AcDbTextStyleTableRecord
  2
STANDARD
 70
     0
 40
0.0
 41
0.9
 50
0.0
 71
     0
 42
64.0
  3
SIMPLEX
  4
BIGFONT
  0
STYLE
  5
2E
330
3
100
AcDbSymbolTableRecord
100
AcDbTextStyleTableRecord
  2
STANDARD1
 70
     0
 40
0.0
 41
1.0
 50
0.0
 71
     0
 42
64.0
  3
MONOTXT
  4
BIGFONT
  0
ENDTAB
  0
TABLE
  2
VIEW
  5
6
330
0
100
AcDbSymbolTable
 70
     1
  0
VIEW
  5
2F
330
6
100
AcDbSymbolTableRecord
100
AcDbViewTableRecord
  2
ALL
 70
     0
 40
6056.230032000001
 10
0.0
 20
58.11501599999999
 41
8400.0
 11
0.0
 21
0.0
 31
1.0
 12
0.0
 22
0.0
 32
0.0
 42
50.0
 43
0.0
 44
0.0
 50
0.0
 71
     0
  0
ENDTAB
  0
TABLE
  2
UCS
  5
7
330
0
100
AcDbSymbolTable
 70
     0
  0
ENDTAB
  0
TABLE
  2
APPID
  5
9
330
0
100
AcDbSymbolTable
 70
     1
  0
APPID
  5
12
330
9
100
AcDbSymbolTableRecord
100
AcDbRegAppTableRecord
  2
ACAD
 70
     0
  0
ENDTAB
  0
TABLE
  2
DIMSTYLE
  5
A
330
0
100
AcDbSymbolTable
 70
     1
  0
DIMSTYLE
105
219
330
A
100
AcDbSymbolTableRecord
100
AcDbDimStyleTableRecord
  2
STANDARD
 70
     0
  3

  4

  5

  6

  7

 40
1.0
 41
0.18
 42
0.0625
 43
0.38
 44
0.18
 45
0.0
 46
0.0
 47
0.0
 48
0.0
140
0.18
141
0.09
142
0.0
143
25.4
144
1.0
145
0.0
146
1.0
147
0.09
 71
     0
 72
     0
 73
     1
 74
     1
 75
     0
 76
     0
 77
     0
 78
     0
170
     0
171
     2
172
     0
173
     0
174
     0
175
     0
176
     0
177
     0
178
     0
270
     2
271
     4
272
     4
273
     2
274
     2
340
11
275
     0
280
     0
281
     0
282
     0
283
     1
284
     0
285
     0
286
     0
287
     3
288
     0
  0
ENDTAB
  0
TABLE
  2
BLOCK_RECORD
  5
1
330
0
100
AcDbSymbolTable
 70
     2
  0
BLOCK_RECORD
  5
1E
102
{ACAD_XDICTIONARY
360
23E
102
}
330
1
100
AcDbSymbolTableRecord
100
AcDbBlockTableRecord
  2
*MODEL_SPACE
  0
BLOCK_RECORD
  5
1A
102
{ACAD_XDICTIONARY
360
23C
102
}
330
1
100
AcDbSymbolTableRecord
100
AcDbBlockTableRecord
  2
*PAPER_SPACE
  0
BLOCK_RECORD
  5
34
330
1
100
AcDbSymbolTableRecord
100
AcDbBlockTableRecord
  2
_ORIGIN
  0
BLOCK_RECORD
  5
39
330
1
100
AcDbSymbolTableRecord
100
AcDbBlockTableRecord
  2
_DOTBLANK
  0
ENDTAB
  0
ENDSEC
  0
SECTION
  2
BLOCKS
  0
BLOCK
  5
1F
330
1E
100
AcDbEntity
  8
0
100
AcDbBlockBegin
  2
*MODEL_SPACE
 70
     0
 10
0.0
 20
0.0
 30
0.0
  3
*MODEL_SPACE
  1

  0
ENDBLK
  5
20
330
1E
100
AcDbEntity
  8
0
100
AcDbBlockEnd
  0
BLOCK
  5
1B
330
1A
100
AcDbEntity
 67
     1
  8
0
100
AcDbBlockBegin
  2
*PAPER_SPACE
 70
     0
 10
0.0
 20
0.0
 30
0.0
  3
*PAPER_SPACE
  1

  0
ENDBLK
  5
1C
330
1A
100
AcDbEntity
 67
     1
  8
0
100
AcDbBlockEnd
  0
BLOCK
  5
35
330
34
100
AcDbEntity
  8
0
100
AcDbBlockBegin
  2
_ORIGIN
 70
     0
 10
0.0
 20
0.0
 30
0.0
  3
_ORIGIN
  1

  0
CIRCLE
  5
36
330
34
100
AcDbEntity
  8
0
  6
CONTINUOUS
 62
     7
100
AcDbCircle
 10
0.0
 20
0.0
 30
0.0
 40
0.5
  0
LINE
  5
37
330
34
100
AcDbEntity
  8
0
  6
CONTINUOUS
 62
     7
100
AcDbLine
 10
-0.5
 20
0.0
 30
0.0
 11
-1.0
 21
0.0
 31
0.0
  0
ENDBLK
  5
38
330
34
100
AcDbEntity
  8
0
100
AcDbBlockEnd
  0
BLOCK
  5
3A
330
39
100
AcDbEntity
  8
0
100
AcDbBlockBegin
  2
_DOTBLANK
 70
     0
 10
0.0
 20
0.0
 30
0.0
  3
_DOTBLANK
  1

  0
CIRCLE
  5
3B
330
39
100
AcDbEntity
  8
0
  6
CONTINUOUS
 62
     7
100
AcDbCircle
 10
0.0
 20
0.0
 30
0.0
 40
0.5
  0
LINE
  5
3C
330
39
100
AcDbEntity
  8
0
  6
CONTINUOUS
 62
     7
100
AcDbLine
 10
-0.5
 20
0.0
 30
0.0
 11
-1.0
 21
0.0
 31
0.0
  0
ENDBLK
  5
3D
330
39
100
AcDbEntity
  8
0
100
AcDbBlockEnd
  0
ENDSEC
  0
SECTION
  2
ENTITIES
  0
TEXT
  5
3E
330
1E
100
AcDbEntity
  8
0
  6
CONTINUOUS
 62
     7
100
AcDbText
 10
12761.29
 20
1934.172
 30
0.0
 40
3.2
  1
 
 50
0.000003
 41
0.5989580000000001
  7
STANDARD1
100
AcDbText
  0
TEXT
  5
3F
330
1E
100
AcDbEntity
  8
ETC
  6
CONTINUOUS
 62
    61
100
AcDbText
 10
428.5227329817188
 20
1094.334544052151
 30
0.0
 40
64.0
  1
PLFY-P50VLMD-E_4
 41
0.9
100
AcDbText
  0
LINE
  5
40
330
1E
100
AcDbEntity
  8
SIZE
  6
CONTINUOUS
 62
    30
100
AcDbLine
 10
-492.9999999999944
 20
338.000000000005
 30
0.0
 11
-930.3438659778604
 21
338.0000000000051
 31
0.0
  0
LINE
  5
41
330
1E
100
AcDbEntity
  8
SIZE
  6
CONTINUOUS
 62
    30
100
AcDbLine
 10
-585.9999999999963
 20
216.0000000000059
 30
0.0
 11
-930.3438659778604
 21
216.000000000006
 31
0.0
  0
LINE
  5
42
330
1E
100
AcDbEntity
  8
SIZE
  6
CONTINUOUS
 62
    30
100
AcDbLine
 10
-900.34386597786
 20
328.0000000000051
 30
0.0
 11
-900.3438659778606
 21
226.000000000006
 31
0.0
  0
CIRCLE
  5
43
330
1E
100
AcDbEntity
  8
SIZE
  6
CONTINUOUS
 62
    30
100
AcDbCircle
 10
-900.34386597786
 20
338.0000000000051
 30
0.0
 40
5.0
  0
LINE
  5
44
330
1E
100
AcDbEntity
  8
SIZE
  6
CONTINUOUS
 62
    30
100
AcDbLine
 10
-900.34386597786
 20
333.0000000000051
 30
0.0
 11
-900.34386597786
 21
328.0000000000051
 31
0.0
  0
CIRCLE
  5
45
330
1E
100
AcDbEntity
  8
SIZE
  6
CONTINUOUS
 62
    30
100
AcDbCircle
 10
-900.3438659778606
 20
216.000000000006
 30
0.0
 40
5.0
  0
LINE
  5
46
330
1E
100
AcDbEntity
  8
SIZE
  6
CONTINUOUS
 62
    30
100
AcDbLine
 10
-900.3438659778606
 20
221.0000000000059
 30
0.0
 11
-900.3438659778606
 21
226.000000000006
 31
0.0
  0
TEXT
  5
47
330
1E
100
AcDbEntity
  8
SIZE
  6
CONTINUOUS
 62
    30
100
AcDbText
 10
-920.3438659778605
 20
208.4285714285767
 30
0.0
 40
64.0
  1
122
 50
90.0
 41
0.9
 72
     1
 11
-920.3438659778605
 21
277.0000000000052
 31
0.0
100
AcDbText
  0
POINT
  5
48
330
1E
100
AcDbEntity
  8
DEFPOINTS
  6
CONTINUOUS
 62
     7
100
AcDbPoint
 10
-472.9999999999945
 20
338.000000000005
 30
0.0
  0
POINT
  5
49
330
1E
100
AcDbEntity
  8
DEFPOINTS
  6
CONTINUOUS
 62
     7
100
AcDbPoint
 10
-565.9999999999962
 20
216.0000000000059
 30
0.0
  0
POINT
  5
4A
330
1E
100
AcDbEntity
  8
DEFPOINTS
  6
CONTINUOUS
 62
     7
100
AcDbPoint
 10
-900.3438659778606
 20
216.000000000006
 30
0.0
  0
LINE
  5
4B
330
1E
100
AcDbEntity
  8
NOTE
  6
CONTINUOUS
 62
     4
100
AcDbLine
 10
-472.9999999999964
 20
278.0000000000045
 30
0.0
 11
-874.1344389895584
 21
780.7862208713229
 31
0.0
  0
LINE
  5
4C
330
1E
100
AcDbEntity
  8
NOTE
  6
CONTINUOUS
 62
     4
100
AcDbLine
 10
-502.999999999998
 20
72.00000000000454
 30
0.0
 11
-917.4512243207608
 21
-575.3321279044548
 31
0.0
  0
LINE
  5
4D
330
1E
100
AcDbEntity
  8
NOTE
  6
CONTINUOUS
 62
     4
100
AcDbLine
 10
-586.9999999999962
 20
213.0000000000054
 30
0.0
 11
-973.9036829999987
 21
-148.3351449999909
 31
0.0
  0
LINE
  5
4E
330
1E
100
AcDbEntity
  8
NOTE
  6
CONTINUOUS
 62
     4
100
AcDbLine
 10
-539.9999999999962
 20
216.0000000000054
 30
0.0
 11
-992.6977658081433
 21
583.7848652465136
 31
0.0
  0
LINE
  5
4F
330
1E
100
AcDbEntity
  8
NOTE
  6
CONTINUOUS
 62
     4
100
AcDbLine
 10
-545.9999999999962
 20
216.0000000000048
 30
0.0
 11
-1042.757627535495
 21
-367.5340543476277
 31
0.0
  0
LINE
  5
50
330
1E
100
AcDbEntity
  8
SIZE
  6
CONTINUOUS
 62
    30
100
AcDbLine
 10
-492.9999999999944
 20
338.000000000005
 30
0.0
 11
-1038.625368020735
 21
338.0000000000051
 31
0.0
  0
LINE
  5
51
330
1E
100
AcDbEntity
  8
SIZE
  6
CONTINUOUS
 62
    30
100
AcDbLine
 10
-626.9999999999964
 20
213.0000000000054
 30
0.0
 11
-1038.625368020735
 21
213.0000000000055
 31
0.0
  0
LINE
  5
52
330
1E
100
AcDbEntity
  8
SIZE
  6
CONTINUOUS
 62
    30
100
AcDbLine
 10
-1008.625368020734
 20
328.0000000000051
 30
0.0
 11
-1008.625368020734
 21
223.0000000000055
 31
0.0
  0
CIRCLE
  5
53
330
1E
100
AcDbEntity
  8
SIZE
  6
CONTINUOUS
 62
    30
100
AcDbCircle
 10
-1008.625368020734
 20
338.0000000000051
 30
0.0
 40
5.0
  0
LINE
  5
54
330
1E
100
AcDbEntity
  8
SIZE
  6
CONTINUOUS
 62
    30
100
AcDbLine
 10
-1008.625368020734
 20
333.0000000000051
 30
0.0
 11
-1008.625368020734
 21
328.0000000000051
 31
0.0
  0
CIRCLE
  5
55
330
1E
100
AcDbEntity
  8
SIZE
  6
CONTINUOUS
 62
    30
100
AcDbCircle
 10
-1008.625368020734
 20
213.0000000000055
 30
0.0
 40
5.0
  0
LINE
  5
56
330
1E
100
AcDbEntity
  8
SIZE
  6
CONTINUOUS
 62
    30
100
AcDbLine
 10
-1008.625368020734
 20
218.0000000000055
 30
0.0
 11
-1008.625368020734
 21
223.0000000000055
 31
0.0
  0
TEXT
  5
57
330
1E
100
AcDbEntity
  8
SIZE
  6
CONTINUOUS
 62
    30
100
AcDbText
 10
-1028.625368020735
 20
206.9285714285765
 30
0.0
 40
64.0
  1
125
 50
90.0
 41
0.9
 72
     1
 11
-1028.625368020735
 21
275.5000000000051
 31
0.0
100
AcDbText
  0
POINT
  5
58
330
1E
100
AcDbEntity
  8
DEFPOINTS
  6
CONTINUOUS
 62
     7
100
AcDbPoint
 10
-472.9999999999945
 20
338.000000000005
 30
0.0
  0
POINT
  5
59
330
1E
100
AcDbEntity
  8
DEFPOINTS
  6
CONTINUOUS
 62
     7
100
AcDbPoint
 10
-606.9999999999962
 20
213.0000000000054
 30
0.0
  0
POINT
  5
5A
330
1E
100
AcDbEntity
  8
DEFPOINTS
  6
CONTINUOUS
 62
     7
100
AcDbPoint
 10
-1008.625368020734
 20
213.0000000000055
 30
0.0
  0
LINE
  5
5B
330
1E
100
AcDbEntity
  8
SIZE
  6
CONTINUOUS
 62
    30
100
AcDbLine
 10
-492.9999999999944
 20
338.000000000005
 30
0.0
 11
-1172.17291041826
 21
338.0000000000051
 31
0.0
  0
LINE
  5
5C
330
1E
100
AcDbEntity
  8
SIZE
  6
CONTINUOUS
 62
    30
100
AcDbLine
 10
-542.9999999999981
 20
72.000000000005
 30
0.0
 11
-1172.17291041826
 21
72.00000000000518
 31
0.0
  0
LINE
  5
5D
330
1E
100
AcDbEntity
  8
SIZE
  6
CONTINUOUS
 62
    30
100
AcDbLine
 10
-1142.17291041826
 20
328.0000000000051
 30
0.0
 11
-1142.17291041826
 21
82.00000000000519
 31
0.0
  0
CIRCLE
  5
5E
330
1E
100
AcDbEntity
  8
SIZE
  6
CONTINUOUS
 62
    30
100
AcDbCircle
 10
-1142.17291041826
 20
338.0000000000051
 30
0.0
 40
5.0
  0
LINE
  5
5F
330
1E
100
AcDbEntity
  8
SIZE
  6
CONTINUOUS
 62
    30
100
AcDbLine
 10
-1142.17291041826
 20
333.0000000000051
 30
0.0
 11
-1142.17291041826
 21
328.0000000000051
 31
0.0
  0
CIRCLE
  5
60
330
1E
100
AcDbEntity
  8
SIZE
  6
CONTINUOUS
 62
    30
100
AcDbCircle
 10
-1142.17291041826
 20
72.00000000000518
 30
0.0
 40
5.0
  0
LINE
  5
61
330
1E
100
AcDbEntity
  8
SIZE
  6
CONTINUOUS
 62
    30
100
AcDbLine
 10
-1142.17291041826
 20
77.00000000000518
 30
0.0
 11
-1142.17291041826
 21
82.00000000000519
 31
0.0
  0
TEXT
  5
62
330
1E
100
AcDbEntity
  8
SIZE
  6
CONTINUOUS
 62
    30
100
AcDbText
 10
-1162.17291041826
 20
127.3395914809844
 30
0.0
 40
64.0
  1
266
 50
90.0
 41
0.9
 72
     1
 11
-1162.17291041826
 21
200.0253057666987
 31
0.0
100
AcDbText
  0
POINT
  5
63
330
1E
100
AcDbEntity
  8
DEFPOINTS
  6
CONTINUOUS
 62
     7
100
AcDbPoint
 10
-472.9999999999945
 20
338.000000000005
 30
0.0
  0
POINT
  5
64
330
1E
100
AcDbEntity
  8
DEFPOINTS
  6
CONTINUOUS
 62
     7
100
AcDbPoint
 10
-522.999999999998
 20
72.000000000005
 30
0.0
  0
POINT
  5
65
330
1E
100
AcDbEntity
  8
DEFPOINTS
  6
CONTINUOUS
 62
     7
100
AcDbPoint
 10
-1142.17291041826
 20
72.00000000000518
 30
0.0
  0
TEXT
  5
66
330
1E
100
AcDbEntity
  8
NOTE
  6
CONTINUOUS
 62
     4
100
AcDbText
 10
-1021.382537598537
 20
1004.734961046072
 30
0.0
 40
64.0
  1
6-%%c2.9
 41
0.9
100
AcDbText
  0
LINE
  5
67
330
1E
100
AcDbEntity
  8
NOTE
  6
CONTINUOUS
 62
     4
100
AcDbLine
 10
-681.4917744945687
 20
984.2995962984016
 30
0.0
 11
-1087.751969494566
 21
984.2995962984057
 31
0.0
  0
LINE
  5
68
330
1E
100
AcDbEntity
  8
SIZE
  6
CONTINUOUS
 62
    30
100
AcDbLine
 10
493.0000000000053
 20
337.9999999999954
 30
0.0
 11
1090.880209331146
 21
337.9999999999952
 31
0.0
  0
LINE
  5
69
330
1E
100
AcDbEntity
  8
SIZE
  6
CONTINUOUS
 62
    30
100
AcDbLine
 10
493.0000000000017
 20
47.99999999999498
 30
0.0
 11
1090.880209331146
 21
47.99999999999482
 31
0.0
  0
LINE
  5
6A
330
1E
100
AcDbEntity
  8
SIZE
  6
CONTINUOUS
 62
    30
100
AcDbLine
 10
1060.880209331146
 20
327.9999999999952
 30
0.0
 11
1060.880209331146
 21
57.99999999999482
 31
0.0
  0
CIRCLE
  5
6B
330
1E
100
AcDbEntity
  8
SIZE
  6
CONTINUOUS
 62
    30
100
AcDbCircle
 10
1060.880209331146
 20
337.9999999999952
 30
0.0
 40
5.0
  0
LINE
  5
6C
330
1E
100
AcDbEntity
  8
SIZE
  6
CONTINUOUS
 62
    30
100
AcDbLine
 10
1060.880209331146
 20
332.9999999999952
 30
0.0
 11
1060.880209331146
 21
327.9999999999952
 31
0.0
  0
CIRCLE
  5
6D
330
1E
100
AcDbEntity
  8
SIZE
  6
CONTINUOUS
 62
    30
100
AcDbCircle
 10
1060.880209331146
 20
47.99999999999482
 30
0.0
 40
5.0
  0
LINE
  5
6E
330
1E
100
AcDbEntity
  8
SIZE
  6
CONTINUOUS
 62
    30
100
AcDbLine
 10
1060.880209331146
 20
52.99999999999482
 30
0.0
 11
1060.880209331146
 21
57.99999999999482
 31
0.0
  0
TEXT
  5
6F
330
1E
100
AcDbEntity
  8
SIZE
  6
CONTINUOUS
 62
    30
100
AcDbText
 10
1040.880209331146
 20
118.9428571428523
 30
0.0
 40
64.0
  1
290
 50
90.0
 41
0.9
 72
     1
 11
1040.880209331146
 21
192.9999999999951
 31
0.0
100
AcDbText
  0
POINT
  5
70
330
1E
100
AcDbEntity
  8
DEFPOINTS
  6
CONTINUOUS
 62
     7
100
AcDbPoint
 10
473.0000000000053
 20
337.9999999999954
 30
0.0
  0
POINT
  5
71
330
1E
100
AcDbEntity
  8
DEFPOINTS
  6
CONTINUOUS
 62
     7
100
AcDbPoint
 10
473.0000000000017
 20
47.99999999999498
 30
0.0
  0
POINT
  5
72
330
1E
100
AcDbEntity
  8
DEFPOINTS
  6
CONTINUOUS
 62
     7
100
AcDbPoint
 10
1060.880209331146
 20
47.99999999999482
 30
0.0
  0
LINE
  5
73
330
1E
100
AcDbEntity
  8
SIZE
  6
CONTINUOUS
 62
    30
100
AcDbLine
 10
493.0000000000053
 20
337.999999999995
 30
0.0
 11
976.495301739733
 21
337.9999999999948
 31
0.0
  0
LINE
  5
74
330
1E
100
AcDbEntity
  8
SIZE
  6
CONTINUOUS
 62
    30
100
AcDbLine
 10
537.0000000000016
 20
147.9999999999949
 30
0.0
 11
976.495301739733
 21
147.9999999999948
 31
0.0
  0
LINE
  5
75
330
1E
100
AcDbEntity
  8
SIZE
  6
CONTINUOUS
 62
    30
100
AcDbLine
 10
946.4953017397331
 20
327.9999999999948
 30
0.0
 11
946.4953017397331
 21
157.9999999999948
 31
0.0
  0
CIRCLE
  5
76
330
1E
100
AcDbEntity
  8
SIZE
  6
CONTINUOUS
 62
    30
100
AcDbCircle
 10
946.4953017397331
 20
337.9999999999948
 30
0.0
 40
5.0
  0
LINE
  5
77
330
1E
100
AcDbEntity
  8
SIZE
  6
CONTINUOUS
 62
    30
100
AcDbLine
 10
946.4953017397331
 20
332.9999999999948
 30
0.0
 11
946.4953017397331
 21
327.9999999999948
 31
0.0
  0
CIRCLE
  5
78
330
1E
100
AcDbEntity
  8
SIZE
  6
CONTINUOUS
 62
    30
100
AcDbCircle
 10
946.4953017397331
 20
147.9999999999948
 30
0.0
 40
5.0
  0
LINE
  5
79
330
1E
100
AcDbEntity
  8
SIZE
  6
CONTINUOUS
 62
    30
100
AcDbLine
 10
946.4953017397331
 20
152.9999999999948
 30
0.0
 11
946.4953017397331
 21
157.9999999999948
 31
0.0
  0
TEXT
  5
7A
330
1E
100
AcDbEntity
  8
SIZE
  6
CONTINUOUS
 62
    30
100
AcDbText
 10
926.495301739733
 20
174.4285714285663
 30
0.0
 40
64.0
  1
190
 50
90.0
 41
0.9
 72
     1
 11
926.495301739733
 21
242.9999999999949
 31
0.0
100
AcDbText
  0
POINT
  5
7B
330
1E
100
AcDbEntity
  8
DEFPOINTS
  6
CONTINUOUS
 62
     7
100
AcDbPoint
 10
473.0000000000053
 20
337.999999999995
 30
0.0
  0
POINT
  5
7C
330
1E
100
AcDbEntity
  8
DEFPOINTS
  6
CONTINUOUS
 62
     7
100
AcDbPoint
 10
517.0000000000016
 20
147.9999999999949
 30
0.0
  0
POINT
  5
7D
330
1E
100
AcDbEntity
  8
DEFPOINTS
  6
CONTINUOUS
 62
     7
100
AcDbPoint
 10
946.4953017397331
 20
147.9999999999948
 30
0.0
  0
LINE
  5
7E
330
1E
100
AcDbEntity
  8
SIZE
  6
CONTINUOUS
 62
    30
100
AcDbLine
 10
613.0000000000016
 20
44.99999999999409
 30
0.0
 11
949.3874032420407
 21
44.99999999999398
 31
0.0
  0
LINE
  5
7F
330
1E
100
AcDbEntity
  8
SIZE
  6
CONTINUOUS
 62
    30
100
AcDbLine
 10
685.0
 20
-0.0000000000063721
 30
0.0
 11
949.3874032420407
 21
-0.000000000006447
 31
0.0
  0
LINE
  5
80
330
1E
100
AcDbEntity
  8
SIZE
  6
CONTINUOUS
 62
    30
100
AcDbLine
 10
919.3874032420406
 20
54.99999999999399
 30
0.0
 11
919.3874032420406
 21
64.999999999994
 31
0.0
  0
LINE
  5
81
330
1E
100
AcDbEntity
  8
SIZE
  6
CONTINUOUS
 62
    30
100
AcDbLine
 10
919.3874032420406
 20
-10.00000000000643
 30
0.0
 11
919.3874032420406
 21
-153.2571428571525
 31
0.0
  0
LINE
  5
82
330
1E
100
AcDbEntity
  8
SIZE
  6
CONTINUOUS
 62
    30
100
AcDbLine
 10
919.3874032420406
 20
44.99999999999398
 30
0.0
 11
919.3874032420406
 21
-0.0000000000064385
 31
0.0
  0
CIRCLE
  5
83
330
1E
100
AcDbEntity
  8
SIZE
  6
CONTINUOUS
 62
    30
100
AcDbCircle
 10
919.3874032420406
 20
44.99999999999398
 30
0.0
 40
5.0
  0
LINE
  5
84
330
1E
100
AcDbEntity
  8
SIZE
  6
CONTINUOUS
 62
    30
100
AcDbLine
 10
919.3874032420406
 20
49.99999999999399
 30
0.0
 11
919.3874032420406
 21
54.99999999999399
 31
0.0
  0
CIRCLE
  5
85
330
1E
100
AcDbEntity
  8
SIZE
  6
CONTINUOUS
 62
    30
100
AcDbCircle
 10
919.3874032420406
 20
-0.0000000000064385
 30
0.0
 40
5.0
  0
LINE
  5
86
330
1E
100
AcDbEntity
  8
SIZE
  6
CONTINUOUS
 62
    30
100
AcDbLine
 10
919.3874032420406
 20
-5.000000000006438
 30
0.0
 11
919.3874032420406
 21
-10.00000000000643
 31
0.0
  0
TEXT
  5
87
330
1E
100
AcDbEntity
  8
SIZE
  6
CONTINUOUS
 62
    30
100
AcDbText
 10
899.3874032420411
 20
-133.2571428571523
 30
0.0
 40
64.0
  1
45
 50
90.0
 41
0.9
 72
     1
 11
899.3874032420411
 21
-86.62857142858092
 31
0.0
100
AcDbText
  0
POINT
  5
88
330
1E
100
AcDbEntity
  8
DEFPOINTS
  6
CONTINUOUS
 62
     7
100
AcDbPoint
 10
593.0000000000017
 20
44.99999999999409
 30
0.0
  0
POINT
  5
89
330
1E
100
AcDbEntity
  8
DEFPOINTS
  6
CONTINUOUS
 62
     7
100
AcDbPoint
 10
665.0
 20
-0.0000000000063665
 30
0.0
  0
POINT
  5
8A
330
1E
100
AcDbEntity
  8
DEFPOINTS
  6
CONTINUOUS
 62
     7
100
AcDbPoint
 10
919.3874032420406
 20
-0.0000000000064385
 30
0.0
  0
TEXT
  5
8B
330
1E
100
AcDbEntity
  8
NOTE
  6
CONTINUOUS
 62
     4
100
AcDbText
 10
785.2003683759177
 20
619.4407348637376
 30
0.0
 40
64.0
  1
AH 4-14X30
 41
0.9
100
AcDbText
  0
LINE
  5
8C
330
1E
100
AcDbEntity
  8
NOTE
  6
CONTINUOUS
 62
     4
100
AcDbLine
 10
1377.827487815831
 20
586.3744267359995
 30
0.0
 11
711.5672928158328
 21
586.3744267360065
 31
0.0
  0
LINE
  5
8D
330
1E
100
AcDbEntity
  8
SIZE
  6
CONTINUOUS
 62
    30
100
AcDbLine
 10
605.0
 20
-20.00000000000591
 30
0.0
 11
605.0
 21
-208.7615646318726
 31
0.0
  0
LINE
  5
8E
330
1E
100
AcDbEntity
  8
SIZE
  6
CONTINUOUS
 62
    30
100
AcDbLine
 10
-604.9999999999981
 20
-19.99999999999407
 30
0.0
 11
-604.9999999999981
 21
-208.7615646318726
 31
0.0
  0
LINE
  5
8F
330
1E
100
AcDbEntity
  8
SIZE
  6
CONTINUOUS
 62
    30
100
AcDbLine
 10
595.0
 20
-178.7615646318726
 30
0.0
 11
-594.999999999998
 21
-178.7615646318726
 31
0.0
  0
CIRCLE
  5
90
330
1E
100
AcDbEntity
  8
SIZE
  6
CONTINUOUS
 62
    30
100
AcDbCircle
 10
605.0
 20
-178.7615646318726
 30
0.0
 40
5.0
  0
LINE
  5
91
330
1E
100
AcDbEntity
  8
SIZE
  6
CONTINUOUS
 62
    30
100
AcDbLine
 10
600.0
 20
-178.7615646318726
 30
0.0
 11
595.0
 21
-178.7615646318726
 31
0.0
  0
CIRCLE
  5
92
330
1E
100
AcDbEntity
  8
SIZE
  6
CONTINUOUS
 62
    30
100
AcDbCircle
 10
-604.9999999999981
 20
-178.7615646318726
 30
0.0
 40
5.0
  0
LINE
  5
93
330
1E
100
AcDbEntity
  8
SIZE
  6
CONTINUOUS
 62
    30
100
AcDbLine
 10
-599.999999999998
 20
-178.7615646318726
 30
0.0
 11
-594.999999999998
 21
-178.7615646318726
 31
0.0
  0
TEXT
  5
94
330
1E
100
AcDbEntity
  8
SIZE
  6
CONTINUOUS
 62
    30
100
AcDbText
 10
-90.51428571428479
 20
-158.7615646318727
 30
0.0
 40
64.0
  1
1210
 41
0.9
 72
     1
 11
0.0000000000009095
 21
-158.7615646318727
 31
0.0
100
AcDbText
  0
POINT
  5
95
330
1E
100
AcDbEntity
  8
DEFPOINTS
  6
CONTINUOUS
 62
     7
100
AcDbPoint
 10
605.0
 20
-0.0000000000059117
 30
0.0
  0
POINT
  5
96
330
1E
100
AcDbEntity
  8
DEFPOINTS
  6
CONTINUOUS
 62
     7
100
AcDbPoint
 10
-604.9999999999981
 20
0.0000000000059117
 30
0.0
  0
POINT
  5
97
330
1E
100
AcDbEntity
  8
DEFPOINTS
  6
CONTINUOUS
 62
     7
100
AcDbPoint
 10
-604.9999999999981
 20
-178.7615646318726
 30
0.0
  0
LINE
  5
98
330
1E
100
AcDbEntity
  8
SIZE
  6
CONTINUOUS
 62
    30
100
AcDbLine
 10
497.0000000000017
 20
107.999999999995
 30
0.0
 11
497.0000000000017
 21
-626.4517531121819
 31
0.0
  0
LINE
  5
99
330
1E
100
AcDbEntity
  8
SIZE
  6
CONTINUOUS
 62
    30
100
AcDbLine
 10
-496.9999999999963
 20
108.000000000005
 30
0.0
 11
-496.9999999999963
 21
-626.4517531121819
 31
0.0
  0
LINE
  5
9A
330
1E
100
AcDbEntity
  8
SIZE
  6
CONTINUOUS
 62
    30
100
AcDbLine
 10
487.0000000000016
 20
-596.4517531121819
 30
0.0
 11
-486.9999999999963
 21
-596.4517531121819
 31
0.0
  0
CIRCLE
  5
9B
330
1E
100
AcDbEntity
  8
SIZE
  6
CONTINUOUS
 62
    30
100
AcDbCircle
 10
497.0000000000017
 20
-596.4517531121819
 30
0.0
 40
5.0
  0
LINE
  5
9C
330
1E
100
AcDbEntity
  8
SIZE
  6
CONTINUOUS
 62
    30
100
AcDbLine
 10
492.0000000000016
 20
-596.4517531121819
 30
0.0
 11
487.0000000000016
 21
-596.4517531121819
 31
0.0
  0
CIRCLE
  5
9D
330
1E
100
AcDbEntity
  8
SIZE
  6
CONTINUOUS
 62
    30
100
AcDbCircle
 10
-496.9999999999963
 20
-596.4517531121819
 30
0.0
 40
5.0
  0
LINE
  5
9E
330
1E
100
AcDbEntity
  8
SIZE
  6
CONTINUOUS
 62
    30
100
AcDbLine
 10
-491.9999999999963
 20
-596.4517531121819
 30
0.0
 11
-486.9999999999963
 21
-596.4517531121819
 31
0.0
  0
TEXT
  5
9F
330
1E
100
AcDbEntity
  8
SIZE
  6
CONTINUOUS
 62
    30
100
AcDbText
 10
-75.42857142856874
 20
-576.4517531121818
 30
0.0
 40
64.0
  1
994
 41
0.9
 72
     1
 11
0.0000000000026716
 21
-576.4517531121818
 31
0.0
100
AcDbText
  0
POINT
  5
A0
330
1E
100
AcDbEntity
  8
DEFPOINTS
  6
CONTINUOUS
 62
     7
100
AcDbPoint
 10
497.0000000000017
 20
127.999999999995
 30
0.0
  0
POINT
  5
A1
330
1E
100
AcDbEntity
  8
DEFPOINTS
  6
CONTINUOUS
 62
     7
100
AcDbPoint
 10
-496.9999999999963
 20
128.0000000000048
 30
0.0
  0
POINT
  5
A2
330
1E
100
AcDbEntity
  8
DEFPOINTS
  6
CONTINUOUS
 62
     7
100
AcDbPoint
 10
-496.9999999999963
 20
-596.4517531121819
 30
0.0
  0
LINE
  5
A3
330
1E
100
AcDbEntity
  8
SIZE
  6
CONTINUOUS
 62
    30
100
AcDbLine
 10
625.0
 20
-20.00000000000591
 30
0.0
 11
625.0
 21
-500.2444529999934
 31
0.0
  0
LINE
  5
A4
330
1E
100
AcDbEntity
  8
SIZE
  6
CONTINUOUS
 62
    30
100
AcDbLine
 10
-624.999999999998
 20
-19.99999999999363
 30
0.0
 11
-624.999999999998
 21
-500.2444529999934
 31
0.0
  0
LINE
  5
A5
330
1E
100
AcDbEntity
  8
SIZE
  6
CONTINUOUS
 62
    30
100
AcDbLine
 10
615.0
 20
-470.2444529999934
 30
0.0
 11
-614.999999999998
 21
-470.2444529999934
 31
0.0
  0
CIRCLE
  5
A6
330
1E
100
AcDbEntity
  8
SIZE
  6
CONTINUOUS
 62
    30
100
AcDbCircle
 10
625.0
 20
-470.2444529999934
 30
0.0
 40
5.0
  0
LINE
  5
A7
330
1E
100
AcDbEntity
  8
SIZE
  6
CONTINUOUS
 62
    30
100
AcDbLine
 10
620.0
 20
-470.2444529999934
 30
0.0
 11
615.0
 21
-470.2444529999934
 31
0.0
  0
CIRCLE
  5
A8
330
1E
100
AcDbEntity
  8
SIZE
  6
CONTINUOUS
 62
    30
100
AcDbCircle
 10
-624.999999999998
 20
-470.2444529999934
 30
0.0
 40
5.0
  0
LINE
  5
A9
330
1E
100
AcDbEntity
  8
SIZE
  6
CONTINUOUS
 62
    30
100
AcDbLine
 10
-619.999999999998
 20
-470.2444529999934
 30
0.0
 11
-614.999999999998
 21
-470.2444529999934
 31
0.0
  0
TEXT
  5
AA
330
1E
100
AcDbEntity
  8
SIZE
  6
CONTINUOUS
 62
    30
100
AcDbText
 10
-95.99999999999909
 20
-450.2444529999933
 30
0.0
 40
64.0
  1
1250
 41
0.9
 72
     1
 11
0.0000000000009095
 21
-450.2444529999933
 31
0.0
100
AcDbText
  0
POINT
  5
AB
330
1E
100
AcDbEntity
  8
DEFPOINTS
  6
CONTINUOUS
 62
     7
100
AcDbPoint
 10
625.0
 20
-0.0000000000059117
 30
0.0
  0
POINT
  5
AC
330
1E
100
AcDbEntity
  8
DEFPOINTS
  6
CONTINUOUS
 62
     7
100
AcDbPoint
 10
-624.999999999998
 20
0.0000000000063665
 30
0.0
  0
POINT
  5
AD
330
1E
100
AcDbEntity
  8
DEFPOINTS
  6
CONTINUOUS
 62
     7
100
AcDbPoint
 10
-624.999999999998
 20
-470.2444529999934
 30
0.0
  0
LINE
  5
AE
330
1E
100
AcDbEntity
  8
SIZE
  6
CONTINUOUS
 62
    30
100
AcDbLine
 10
-604.9999999999981
 20
-19.99999999999407
 30
0.0
 11
-604.9999999999981
 21
-208.7615646318712
 31
0.0
  0
LINE
  5
AF
330
1E
100
AcDbEntity
  8
SIZE
  6
CONTINUOUS
 62
    30
100
AcDbLine
 10
-624.999999999998
 20
-19.99999999999363
 30
0.0
 11
-624.999999999998
 21
-208.7615646318712
 31
0.0
  0
LINE
  5
B0
330
1E
100
AcDbEntity
  8
SIZE
  6
CONTINUOUS
 62
    30
100
AcDbLine
 10
-594.999999999998
 20
-178.7615646318712
 30
0.0
 11
-584.999999999998
 21
-178.7615646318712
 31
0.0
  0
LINE
  5
B1
330
1E
100
AcDbEntity
  8
SIZE
  6
CONTINUOUS
 62
    30
100
AcDbLine
 10
-634.999999999998
 20
-178.7615646318712
 30
0.0
 11
-778.2571428571428
 21
-178.7615646318712
 31
0.0
  0
LINE
  5
B2
330
1E
100
AcDbEntity
  8
SIZE
  6
CONTINUOUS
 62
    30
100
AcDbLine
 10
-604.9999999999981
 20
-178.7615646318712
 30
0.0
 11
-624.999999999998
 21
-178.7615646318712
 31
0.0
  0
CIRCLE
  5
B3
330
1E
100
AcDbEntity
  8
SIZE
  6
CONTINUOUS
 62
    30
100
AcDbCircle
 10
-604.9999999999981
 20
-178.7615646318712
 30
0.0
 40
5.0
  0
LINE
  5
B4
330
1E
100
AcDbEntity
  8
SIZE
  6
CONTINUOUS
 62
    30
100
AcDbLine
 10
-599.999999999998
 20
-178.7615646318712
 30
0.0
 11
-594.999999999998
 21
-178.7615646318712
 31
0.0
  0
CIRCLE
  5
B5
330
1E
100
AcDbEntity
  8
SIZE
  6
CONTINUOUS
 62
    30
100
AcDbCircle
 10
-624.999999999998
 20
-178.7615646318712
 30
0.0
 40
5.0
  0
LINE
  5
B6
330
1E
100
AcDbEntity
  8
SIZE
  6
CONTINUOUS
 62
    30
100
AcDbLine
 10
-629.9999999999981
 20
-178.7615646318712
 30
0.0
 11
-634.999999999998
 21
-178.7615646318712
 31
0.0
  0
TEXT
  5
B7
330
1E
100
AcDbEntity
  8
SIZE
  6
CONTINUOUS
 62
    30
100
AcDbText
 10
-758.2571428571426
 20
-158.7615646318712
 30
0.0
 40
64.0
  1
20
 41
0.9
 72
     1
 11
-711.6285714285712
 21
-158.7615646318712
 31
0.0
100
AcDbText
  0
POINT
  5
B8
330
1E
100
AcDbEntity
  8
DEFPOINTS
  6
CONTINUOUS
 62
     7
100
AcDbPoint
 10
-604.9999999999981
 20
0.0000000000059117
 30
0.0
  0
POINT
  5
B9
330
1E
100
AcDbEntity
  8
DEFPOINTS
  6
CONTINUOUS
 62
     7
100
AcDbPoint
 10
-624.999999999998
 20
0.0000000000063665
 30
0.0
  0
POINT
  5
BA
330
1E
100
AcDbEntity
  8
DEFPOINTS
  6
CONTINUOUS
 62
     7
100
AcDbPoint
 10
-624.999999999998
 20
-178.7615646318712
 30
0.0
  0
LINE
  5
BB
330
1E
100
AcDbEntity
  8
SIZE
  6
CONTINUOUS
 62
    30
100
AcDbLine
 10
-496.9999999999963
 20
108.000000000005
 30
0.0
 11
-496.9999999999963
 21
-626.4517531121801
 31
0.0
  0
LINE
  5
BC
330
1E
100
AcDbEntity
  8
SIZE
  6
CONTINUOUS
 62
    30
100
AcDbLine
 10
-604.9999999999981
 20
-19.99999999999407
 30
0.0
 11
-604.9999999999981
 21
-626.4517531121801
 31
0.0
  0
LINE
  5
BD
330
1E
100
AcDbEntity
  8
SIZE
  6
CONTINUOUS
 62
    30
100
AcDbLine
 10
-506.9999999999963
 20
-596.4517531121799
 30
0.0
 11
-594.999999999998
 21
-596.4517531121799
 31
0.0
  0
LINE
  5
BE
330
1E
100
AcDbEntity
  8
SIZE
  6
CONTINUOUS
 62
    30
100
AcDbLine
 10
-604.9999999999981
 20
-596.4517531121799
 30
0.0
 11
-792.1428571428633
 21
-596.4517531121799
 31
0.0
  0
CIRCLE
  5
BF
330
1E
100
AcDbEntity
  8
SIZE
  6
CONTINUOUS
 62
    30
100
AcDbCircle
 10
-496.9999999999963
 20
-596.4517531121799
 30
0.0
 40
5.0
  0
LINE
  5
C0
330
1E
100
AcDbEntity
  8
SIZE
  6
CONTINUOUS
 62
    30
100
AcDbLine
 10
-501.9999999999964
 20
-596.4517531121799
 30
0.0
 11
-506.9999999999963
 21
-596.4517531121799
 31
0.0
  0
CIRCLE
  5
C1
330
1E
100
AcDbEntity
  8
SIZE
  6
CONTINUOUS
 62
    30
100
AcDbCircle
 10
-604.9999999999981
 20
-596.4517531121799
 30
0.0
 40
5.0
  0
LINE
  5
C2
330
1E
100
AcDbEntity
  8
SIZE
  6
CONTINUOUS
 62
    30
100
AcDbLine
 10
-599.999999999998
 20
-596.4517531121799
 30
0.0
 11
-594.999999999998
 21
-596.4517531121799
 31
0.0
  0
TEXT
  5
C3
330
1E
100
AcDbEntity
  8
SIZE
  6
CONTINUOUS
 62
    30
100
AcDbText
 10
-772.1428571428633
 20
-576.4517531121801
 30
0.0
 40
64.0
  1
108
 41
0.9
 72
     1
 11
-703.5714285714348
 21
-576.4517531121801
 31
0.0
100
AcDbText
  0
POINT
  5
C4
330
1E
100
AcDbEntity
  8
DEFPOINTS
  6
CONTINUOUS
 62
     7
100
AcDbPoint
 10
-496.9999999999963
 20
128.0000000000048
 30
0.0
  0
POINT
  5
C5
330
1E
100
AcDbEntity
  8
DEFPOINTS
  6
CONTINUOUS
 62
     7
100
AcDbPoint
 10
-604.9999999999981
 20
0.0000000000059117
 30
0.0
  0
POINT
  5
C6
330
1E
100
AcDbEntity
  8
DEFPOINTS
  6
CONTINUOUS
 62
     7
100
AcDbPoint
 10
-604.9999999999981
 20
-596.4517531121799
 30
0.0
  0
LINE
  5
C7
330
1E
100
AcDbEntity
  8
SIZE
  6
CONTINUOUS
 62
    30
100
AcDbLine
 10
605.0
 20
-20.00000000000591
 30
0.0
 11
605.0
 21
-208.7615646318853
 31
0.0
  0
LINE
  5
C8
330
1E
100
AcDbEntity
  8
SIZE
  6
CONTINUOUS
 62
    30
100
AcDbLine
 10
625.0
 20
-21.00000000000591
 30
0.0
 11
625.0
 21
-208.7615646318853
 31
0.0
  0
LINE
  5
C9
330
1E
100
AcDbEntity
  8
SIZE
  6
CONTINUOUS
 62
    30
100
AcDbLine
 10
595.0
 20
-178.7615646318854
 30
0.0
 11
585.0
 21
-178.7615646318854
 31
0.0
  0
LINE
  5
CA
330
1E
100
AcDbEntity
  8
SIZE
  6
CONTINUOUS
 62
    30
100
AcDbLine
 10
635.0
 20
-178.7615646318854
 30
0.0
 11
778.2571428571428
 21
-178.7615646318854
 31
0.0
  0
LINE
  5
CB
330
1E
100
AcDbEntity
  8
SIZE
  6
CONTINUOUS
 62
    30
100
AcDbLine
 10
605.0
 20
-178.7615646318854
 30
0.0
 11
625.0
 21
-178.7615646318854
 31
0.0
  0
CIRCLE
  5
CC
330
1E
100
AcDbEntity
  8
SIZE
  6
CONTINUOUS
 62
    30
100
AcDbCircle
 10
605.0
 20
-178.7615646318854
 30
0.0
 40
5.0
  0
LINE
  5
CD
330
1E
100
AcDbEntity
  8
SIZE
  6
CONTINUOUS
 62
    30
100
AcDbLine
 10
600.0
 20
-178.7615646318854
 30
0.0
 11
595.0
 21
-178.7615646318854
 31
0.0
  0
CIRCLE
  5
CE
330
1E
100
AcDbEntity
  8
SIZE
  6
CONTINUOUS
 62
    30
100
AcDbCircle
 10
625.0
 20
-178.7615646318854
 30
0.0
 40
5.0
  0
LINE
  5
CF
330
1E
100
AcDbEntity
  8
SIZE
  6
CONTINUOUS
 62
    30
100
AcDbLine
 10
630.0
 20
-178.7615646318854
 30
0.0
 11
635.0
 21
-178.7615646318854
 31
0.0
  0
TEXT
  5
D0
330
1E
100
AcDbEntity
  8
SIZE
  6
CONTINUOUS
 62
    30
100
AcDbText
 10
664.9999999999998
 20
-158.7615646318854
 30
0.0
 40
64.0
  1
20
 41
0.9
 72
     1
 11
711.6285714285712
 21
-158.7615646318854
 31
0.0
100
AcDbText
  0
POINT
  5
D1
330
1E
100
AcDbEntity
  8
DEFPOINTS
  6
CONTINUOUS
 62
     7
100
AcDbPoint
 10
605.0
 20
-0.0000000000059117
 30
0.0
  0
POINT
  5
D2
330
1E
100
AcDbEntity
  8
DEFPOINTS
  6
CONTINUOUS
 62
     7
100
AcDbPoint
 10
625.0
 20
-1.00000000000591
 30
0.0
  0
POINT
  5
D3
330
1E
100
AcDbEntity
  8
DEFPOINTS
  6
CONTINUOUS
 62
     7
100
AcDbPoint
 10
625.0
 20
-178.7615646318854
 30
0.0
  0
LINE
  5
D4
330
1E
100
AcDbEntity
  8
SIZE
  6
CONTINUOUS
 62
    30
100
AcDbLine
 10
497.0000000000017
 20
107.999999999995
 30
0.0
 11
497.0000000000017
 21
-626.4517531121936
 31
0.0
  0
LINE
  5
D5
330
1E
100
AcDbEntity
  8
SIZE
  6
CONTINUOUS
 62
    30
100
AcDbLine
 10
605.0
 20
-20.00000000000591
 30
0.0
 11
605.0
 21
-626.4517531121936
 31
0.0
  0
LINE
  5
D6
330
1E
100
AcDbEntity
  8
SIZE
  6
CONTINUOUS
 62
    30
100
AcDbLine
 10
507.0000000000018
 20
-596.4517531121936
 30
0.0
 11
595.0
 21
-596.4517531121936
 31
0.0
  0
LINE
  5
D7
330
1E
100
AcDbEntity
  8
SIZE
  6
CONTINUOUS
 62
    30
100
AcDbLine
 10
605.0
 20
-596.4517531121936
 30
0.0
 11
792.1428571428571
 21
-596.4517531121936
 31
0.0
  0
CIRCLE
  5
D8
330
1E
100
AcDbEntity
  8
SIZE
  6
CONTINUOUS
 62
    30
100
AcDbCircle
 10
497.0000000000017
 20
-596.4517531121936
 30
0.0
 40
5.0
  0
LINE
  5
D9
330
1E
100
AcDbEntity
  8
SIZE
  6
CONTINUOUS
 62
    30
100
AcDbLine
 10
502.0000000000017
 20
-596.4517531121936
 30
0.0
 11
507.0000000000017
 21
-596.4517531121936
 31
0.0
  0
CIRCLE
  5
DA
330
1E
100
AcDbEntity
  8
SIZE
  6
CONTINUOUS
 62
    30
100
AcDbCircle
 10
605.0
 20
-596.4517531121936
 30
0.0
 40
5.0
  0
LINE
  5
DB
330
1E
100
AcDbEntity
  8
SIZE
  6
CONTINUOUS
 62
    30
100
AcDbLine
 10
600.0
 20
-596.4517531121936
 30
0.0
 11
595.0
 21
-596.4517531121936
 31
0.0
  0
TEXT
  5
DC
330
1E
100
AcDbEntity
  8
SIZE
  6
CONTINUOUS
 62
    30
100
AcDbText
 10
635.0
 20
-576.4517531121936
 30
0.0
 40
64.0
  1
108
 41
0.9
 72
     1
 11
703.5714285714285
 21
-576.4517531121936
 31
0.0
100
AcDbText
  0
POINT
  5
DD
330
1E
100
AcDbEntity
  8
DEFPOINTS
  6
CONTINUOUS
 62
     7
100
AcDbPoint
 10
497.0000000000017
 20
127.999999999995
 30
0.0
  0
POINT
  5
DE
330
1E
100
AcDbEntity
  8
DEFPOINTS
  6
CONTINUOUS
 62
     7
100
AcDbPoint
 10
605.0
 20
-0.0000000000059117
 30
0.0
  0
POINT
  5
DF
330
1E
100
AcDbEntity
  8
DEFPOINTS
  6
CONTINUOUS
 62
     7
100
AcDbPoint
 10
605.0
 20
-596.4517531121936
 30
0.0
  0
TEXT
  5
E0
330
1E
100
AcDbEntity
  8
NOTE
  6
CONTINUOUS
 62
     4
100
AcDbText
 10
-385.4216388451168
 20
-715.5009048837427
 30
0.0
 40
64.0
  1
(Lifting bolt pitch)
 41
0.9
100
AcDbText
  0
TEXT
  5
E1
330
1E
100
AcDbEntity
  8
NOTE
  6
CONTINUOUS
 62
     4
100
AcDbText
 10
-361.1271146600083
 20
-280.6877366781412
 30
0.0
 40
64.0
  1
(Ceiling opening)
 41
0.9
100
AcDbText
  0
LINE
  5
E2
330
1E
100
AcDbEntity
  8
SIZE
  6
CONTINUOUS
 62
    30
100
AcDbLine
 10
183.0000000000054
 20
343.999999999998
 30
0.0
 11
183.0000000000054
 21
637.3870000000023
 31
0.0
  0
LINE
  5
E3
330
1E
100
AcDbEntity
  8
SIZE
  6
CONTINUOUS
 62
    30
100
AcDbLine
 10
-251.9999999999944
 20
344.0000000000026
 30
0.0
 11
-251.9999999999944
 21
637.3870000000023
 31
0.0
  0
LINE
  5
E4
330
1E
100
AcDbEntity
  8
SIZE
  6
CONTINUOUS
 62
    30
100
AcDbLine
 10
173.0000000000054
 20
607.3870000000023
 30
0.0
 11
-241.9999999999944
 21
607.3870000000023
 31
0.0
  0
CIRCLE
  5
E5
330
1E
100
AcDbEntity
  8
SIZE
  6
CONTINUOUS
 62
    30
100
AcDbCircle
 10
183.0000000000054
 20
607.3870000000023
 30
0.0
 40
5.0
  0
LINE
  5
E6
330
1E
100
AcDbEntity
  8
SIZE
  6
CONTINUOUS
 62
    30
100
AcDbLine
 10
178.0000000000054
 20
607.3870000000023
 30
0.0
 11
173.0000000000054
 21
607.3870000000023
 31
0.0
  0
CIRCLE
  5
E7
330
1E
100
AcDbEntity
  8
SIZE
  6
CONTINUOUS
 62
    30
100
AcDbCircle
 10
-251.9999999999944
 20
607.3870000000023
 30
0.0
 40
5.0
  0
LINE
  5
E8
330
1E
100
AcDbEntity
  8
SIZE
  6
CONTINUOUS
 62
    30
100
AcDbLine
 10
-246.9999999999944
 20
607.3870000000023
 30
0.0
 11
-241.9999999999944
 21
607.3870000000023
 31
0.0
  0
TEXT
  5
E9
330
1E
100
AcDbEntity
  8
SIZE
  6
CONTINUOUS
 62
    30
100
AcDbText
 10
-108.5571428571373
 20
627.3870000000023
 30
0.0
 40
64.0
  1
435
 41
0.9
 72
     1
 11
-34.49999999999451
 21
627.3870000000023
 31
0.0
100
AcDbText
  0
POINT
  5
EA
330
1E
100
AcDbEntity
  8
DEFPOINTS
  6
CONTINUOUS
 62
     7
100
AcDbPoint
 10
183.0000000000054
 20
323.9999999999982
 30
0.0
  0
POINT
  5
EB
330
1E
100
AcDbEntity
  8
DEFPOINTS
  6
CONTINUOUS
 62
     7
100
AcDbPoint
 10
-251.9999999999944
 20
324.0000000000026
 30
0.0
  0
POINT
  5
EC
330
1E
100
AcDbEntity
  8
DEFPOINTS
  6
CONTINUOUS
 62
     7
100
AcDbPoint
 10
-251.9999999999944
 20
607.3870000000023
 30
0.0
  0
LINE
  5
ED
330
1E
100
AcDbEntity
  8
SIZE
  6
CONTINUOUS
 62
    30
100
AcDbLine
 10
473.0000000000053
 20
357.9999999999949
 30
0.0
 11
473.0000000000055
 21
871.6490106821803
 31
0.0
  0
LINE
  5
EE
330
1E
100
AcDbEntity
  8
SIZE
  6
CONTINUOUS
 62
    30
100
AcDbLine
 10
-472.9999999999945
 20
358.0000000000053
 30
0.0
 11
-472.9999999999945
 21
871.6490106821803
 31
0.0
  0
LINE
  5
EF
330
1E
100
AcDbEntity
  8
SIZE
  6
CONTINUOUS
 62
    30
100
AcDbLine
 10
463.0000000000053
 20
841.64901068218
 30
0.0
 11
-462.9999999999943
 21
841.64901068218
 31
0.0
  0
CIRCLE
  5
F0
330
1E
100
AcDbEntity
  8
SIZE
  6
CONTINUOUS
 62
    30
100
AcDbCircle
 10
473.0000000000055
 20
841.64901068218
 30
0.0
 40
5.0
  0
LINE
  5
F1
330
1E
100
AcDbEntity
  8
SIZE
  6
CONTINUOUS
 62
    30
100
AcDbLine
 10
468.0000000000055
 20
841.64901068218
 30
0.0
 11
463.0000000000054
 21
841.64901068218
 31
0.0
  0
CIRCLE
  5
F2
330
1E
100
AcDbEntity
  8
SIZE
  6
CONTINUOUS
 62
    30
100
AcDbCircle
 10
-472.9999999999945
 20
841.64901068218
 30
0.0
 40
5.0
  0
LINE
  5
F3
330
1E
100
AcDbEntity
  8
SIZE
  6
CONTINUOUS
 62
    30
100
AcDbLine
 10
-467.9999999999944
 20
841.64901068218
 30
0.0
 11
-462.9999999999944
 21
841.64901068218
 31
0.0
  0
TEXT
  5
F4
330
1E
100
AcDbEntity
  8
SIZE
  6
CONTINUOUS
 62
    30
100
AcDbText
 10
-72.68571428570878
 20
861.6490106821801
 30
0.0
 40
64.0
  1
946
 41
0.9
 72
     1
 11
0.0000000000055138
 21
861.6490106821801
 31
0.0
100
AcDbText
  0
POINT
  5
F5
330
1E
100
AcDbEntity
  8
DEFPOINTS
  6
CONTINUOUS
 62
     7
100
AcDbPoint
 10
473.0000000000053
 20
337.999999999995
 30
0.0
  0
POINT
  5
F6
330
1E
100
AcDbEntity
  8
DEFPOINTS
  6
CONTINUOUS
 62
     7
100
AcDbPoint
 10
-472.9999999999945
 20
338.0000000000054
 30
0.0
  0
POINT
  5
F7
330
1E
100
AcDbEntity
  8
DEFPOINTS
  6
CONTINUOUS
 62
     7
100
AcDbPoint
 10
-472.9999999999945
 20
841.64901068218
 30
0.0
  0
LINE
  5
F8
330
1E
100
AcDbEntity
  8
DETAIL
  6
CONTINUOUS
 62
     5
100
AcDbLine
 10
-472.9999999999945
 20
338.0000000000054
 30
0.0
 11
473.0000000000053
 21
337.999999999995
 31
0.0
  0
LINE
  5
F9
330
1E
100
AcDbEntity
  8
DETAIL
  6
CONTINUOUS
 62
     5
100
AcDbLine
 10
473.0000000000017
 20
47.99999999999453
 30
0.0
 11
-472.999999999998
 21
48.00000000000546
 31
0.0
  0
LINE
  5
FA
330
1E
100
AcDbEntity
  8
DETAIL
  6
CONTINUOUS
 62
     5
100
AcDbLine
 10
-592.9999999999981
 20
45.00000000000546
 30
0.0
 11
593.0000000000017
 21
44.99999999999363
 31
0.0
  0
LINE
  5
FB
330
1E
100
AcDbEntity
  8
DETAIL
  6
CONTINUOUS
 62
     5
100
AcDbLine
 10
-624.999999999998
 20
0.0000000000063665
 30
0.0
 11
625.0
 21
-0.0000000000059117
 31
0.0
  0
LINE
  5
FC
330
1E
100
AcDbEntity
  8
DETAIL
  6
CONTINUOUS
 62
     5
100
AcDbLine
 10
-617.9999999999981
 20
-7.999999999993631
 30
0.0
 11
618.0
 21
-8.000000000005909
 31
0.0
  0
LINE
  5
FD
330
1E
100
AcDbEntity
  8
DETAIL
  6
CONTINUOUS
 62
     5
100
AcDbLine
 10
-251.9999999999944
 20
286.0000000000022
 30
0.0
 11
183.0000000000054
 21
285.999999999998
 31
0.0
  0
LINE
  5
FE
330
1E
100
AcDbEntity
  8
DETAIL
  6
CONTINUOUS
 62
     5
100
AcDbLine
 10
-251.9999999999963
 20
176.0000000000021
 30
0.0
 11
183.0000000000035
 21
175.9999999999976
 31
0.0
  0
POINT
  5
FF
330
1E
100
AcDbEntity
  8
ARRANGE
  6
CONTINUOUS
 62
     1
100
AcDbPoint
 10
0.0
 20
0.0
 30
0.0
  0
LINE
  5
100
330
1E
100
AcDbEntity
  8
SIZE
  6
CONTINUOUS
 62
    30
100
AcDbLine
 10
493.0000000000053
 20
337.999999999995
 30
0.0
 11
860.7545686224311
 21
337.9999999999948
 31
0.0
  0
LINE
  5
101
330
1E
100
AcDbEntity
  8
SIZE
  6
CONTINUOUS
 62
    30
100
AcDbLine
 10
203.0000000000054
 20
285.9999999999977
 30
0.0
 11
860.7545686224311
 21
285.9999999999974
 31
0.0
  0
LINE
  5
102
330
1E
100
AcDbEntity
  8
SIZE
  6
CONTINUOUS
 62
    30
100
AcDbLine
 10
830.754568622431
 20
275.9999999999974
 30
0.0
 11
830.754568622431
 21
265.9999999999974
 31
0.0
  0
LINE
  5
103
330
1E
100
AcDbEntity
  8
SIZE
  6
CONTINUOUS
 62
    30
100
AcDbLine
 10
830.754568622431
 20
347.9999999999948
 30
0.0
 11
830.754568622431
 21
491.2571428571395
 31
0.0
  0
LINE
  5
104
330
1E
100
AcDbEntity
  8
SIZE
  6
CONTINUOUS
 62
    30
100
AcDbLine
 10
830.754568622431
 20
285.9999999999974
 30
0.0
 11
830.754568622431
 21
337.9999999999948
 31
0.0
  0
CIRCLE
  5
105
330
1E
100
AcDbEntity
  8
SIZE
  6
CONTINUOUS
 62
    30
100
AcDbCircle
 10
830.754568622431
 20
285.9999999999974
 30
0.0
 40
5.0
  0
LINE
  5
106
330
1E
100
AcDbEntity
  8
SIZE
  6
CONTINUOUS
 62
    30
100
AcDbLine
 10
830.754568622431
 20
280.9999999999975
 30
0.0
 11
830.754568622431
 21
275.9999999999974
 31
0.0
  0
CIRCLE
  5
107
330
1E
100
AcDbEntity
  8
SIZE
  6
CONTINUOUS
 62
    30
100
AcDbCircle
 10
830.754568622431
 20
337.9999999999948
 30
0.0
 40
5.0
  0
LINE
  5
108
330
1E
100
AcDbEntity
  8
SIZE
  6
CONTINUOUS
 62
    30
100
AcDbLine
 10
830.754568622431
 20
342.9999999999949
 30
0.0
 11
830.754568622431
 21
347.9999999999948
 31
0.0
  0
TEXT
  5
109
330
1E
100
AcDbEntity
  8
SIZE
  6
CONTINUOUS
 62
    30
100
AcDbText
 10
810.7545686224311
 20
377.9999999999966
 30
0.0
 40
64.0
  1
52
 50
90.0
 41
0.9
 72
     1
 11
810.7545686224311
 21
424.628571428568
 31
0.0
100
AcDbText
  0
POINT
  5
10A
330
1E
100
AcDbEntity
  8
DEFPOINTS
  6
CONTINUOUS
 62
     7
100
AcDbPoint
 10
473.0000000000053
 20
337.999999999995
 30
0.0
  0
POINT
  5
10B
330
1E
100
AcDbEntity
  8
DEFPOINTS
  6
CONTINUOUS
 62
     7
100
AcDbPoint
 10
183.0000000000054
 20
285.9999999999977
 30
0.0
  0
POINT
  5
10C
330
1E
100
AcDbEntity
  8
DEFPOINTS
  6
CONTINUOUS
 62
     7
100
AcDbPoint
 10
830.754568622431
 20
285.9999999999974
 30
0.0
  0
LINE
  5
10D
330
1E
100
AcDbEntity
  8
SIZE
  6
CONTINUOUS
 62
    30
100
AcDbLine
 10
203.0000000000054
 20
285.999999999998
 30
0.0
 11
860.7545686224311
 21
285.999999999998
 31
0.0
  0
LINE
  5
10E
330
1E
100
AcDbEntity
  8
SIZE
  6
CONTINUOUS
 62
    30
100
AcDbLine
 10
203.0000000000035
 20
175.9999999999975
 30
0.0
 11
860.7545686224311
 21
175.9999999999974
 31
0.0
  0
LINE
  5
10F
330
1E
100
AcDbEntity
  8
SIZE
  6
CONTINUOUS
 62
    30
100
AcDbLine
 10
830.754568622431
 20
275.999999999998
 30
0.0
 11
830.754568622431
 21
185.9999999999974
 31
0.0
  0
CIRCLE
  5
110
330
1E
100
AcDbEntity
  8
SIZE
  6
CONTINUOUS
 62
    30
100
AcDbCircle
 10
830.754568622431
 20
285.999999999998
 30
0.0
 40
5.0
  0
LINE
  5
111
330
1E
100
AcDbEntity
  8
SIZE
  6
CONTINUOUS
 62
    30
100
AcDbLine
 10
830.754568622431
 20
280.999999999998
 30
0.0
 11
830.754568622431
 21
275.999999999998
 31
0.0
  0
CIRCLE
  5
112
330
1E
100
AcDbEntity
  8
SIZE
  6
CONTINUOUS
 62
    30
100
AcDbCircle
 10
830.754568622431
 20
175.9999999999974
 30
0.0
 40
5.0
  0
LINE
  5
113
330
1E
100
AcDbEntity
  8
SIZE
  6
CONTINUOUS
 62
    30
100
AcDbLine
 10
830.754568622431
 20
180.9999999999974
 30
0.0
 11
830.754568622431
 21
185.9999999999974
 31
0.0
  0
TEXT
  5
114
330
1E
100
AcDbEntity
  8
SIZE
  6
CONTINUOUS
 62
    30
100
AcDbText
 10
810.7545686224311
 20
167.9142857142836
 30
0.0
 40
64.0
  1
110
 50
90.0
 41
0.9
 72
     1
 11
810.7545686224311
 21
230.9999999999979
 31
0.0
100
AcDbText
  0
POINT
  5
115
330
1E
100
AcDbEntity
  8
DEFPOINTS
  6
CONTINUOUS
 62
     7
100
AcDbPoint
 10
183.0000000000054
 20
285.999999999998
 30
0.0
  0
POINT
  5
116
330
1E
100
AcDbEntity
  8
DEFPOINTS
  6
CONTINUOUS
 62
     7
100
AcDbPoint
 10
183.0000000000035
 20
175.9999999999976
 30
0.0
  0
POINT
  5
117
330
1E
100
AcDbEntity
  8
DEFPOINTS
  6
CONTINUOUS
 62
     7
100
AcDbPoint
 10
830.754568622431
 20
175.9999999999974
 30
0.0
  0
CIRCLE
  5
118
330
1E
100
AcDbEntity
  8
FIX
  6
CONTINUOUS
 62
    11
100
AcDbCircle
 10
497.0000000000017
 20
147.9999999999949
 30
0.0
 40
20.0
  0
LINE
  5
119
330
1E
100
AcDbEntity
  8
NOTE
  6
CONTINUOUS
 62
     4
100
AcDbLine
 10
477.0000000000017
 20
147.9999999999954
 30
0.0
 11
517.0000000000016
 21
147.9999999999949
 31
0.0
  0
LINE
  5
11A
330
1E
100
AcDbEntity
  8
DETAIL
  6
CONTINUOUS
 62
     5
100
AcDbLine
 10
473.0000000000017
 20
147.9999999999954
 30
0.0
 11
523.0000000000017
 21
147.9999999999949
 31
0.0
  0
LINE
  5
11B
330
1E
100
AcDbEntity
  8
DETAIL
  6
CONTINUOUS
 62
     5
100
AcDbLine
 10
473.0000000000017
 20
145.6999999999951
 30
0.0
 11
523.0000000000017
 21
145.6999999999948
 31
0.0
  0
LINE
  5
11C
330
1E
100
AcDbEntity
  8
NOTE
  6
CONTINUOUS
 62
     4
100
AcDbLine
 10
497.0000000000017
 20
147.9999999999949
 30
0.0
 11
711.5672928158328
 21
586.3744267360065
 31
0.0
  0
LINE
  5
11D
330
1E
100
AcDbEntity
  8
DETAIL
  6
CONTINUOUS
 62
     5
100
AcDbLine
 10
593.0000000000017
 20
44.99999999999409
 30
0.0
 11
593.0
 21
-0.0000000000059117
 31
0.0
  0
ARC
  5
11E
330
1E
100
AcDbEntity
  8
DETAIL
  6
CONTINUOUS
 62
     5
100
AcDbCircle
 10
618.0
 20
-1.00000000000591
 30
0.0
 40
7.0
100
AcDbArc
 50
269.9999999999993
 51
0.0
  0
LINE
  5
11F
330
1E
100
AcDbEntity
  8
DETAIL
  6
CONTINUOUS
 62
     5
100
AcDbLine
 10
625.0
 20
-1.00000000000591
 30
0.0
 11
625.0
 21
-0.0000000000059117
 31
0.0
  0
LINE
  5
120
330
1E
100
AcDbEntity
  8
SERVICESPACE
  6
DASHDOT
 62
     2
100
AcDbLine
 10
605.0
 20
-0.0000000000059117
 30
0.0
 11
665.0
 21
-0.0000000000063665
 31
0.0
  0
LINE
  5
121
330
1E
100
AcDbEntity
  8
SERVICESPACE
  6
DASHDOT
 62
     2
100
AcDbLine
 10
605.0000000000017
 20
19.99999999999407
 30
0.0
 11
665.0000000000017
 21
19.99999999999363
 31
0.0
  0
LINE
  5
122
330
1E
100
AcDbEntity
  8
SERVICESPACE
  6
DASHDOT
 62
     2
100
AcDbLine
 10
605.0000000000017
 20
19.99999999999407
 30
0.0
 11
605.0
 21
-0.0000000000059117
 31
0.0
  0
LWPOLYLINE
  5
123
330
1E
100
AcDbEntity
  8
NOTE
  6
CONTINUOUS
 62
     4
100
AcDbPolyline
 90
        3
 70
     0
 43
0.0
 10
504.698377337916
 20
187.2521972717136
 10
497.0000000000017
 20
147.9999999999949
 10
523.2930889879879
 20
178.1442115709637
  0
LINE
  5
128
330
1E
100
AcDbEntity
  8
DETAIL
  6
CONTINUOUS
 62
     5
100
AcDbLine
 10
523.0000000000017
 20
147.9999999999949
 30
0.0
 11
523.0000000000017
 21
145.6999999999951
 31
0.0
  0
LINE
  5
129
330
1E
100
AcDbEntity
  8
NOTE
  6
CONTINUOUS
 62
     4
100
AcDbLine
 10
497.0000000000017
 20
127.999999999995
 30
0.0
 11
497.0000000000017
 21
167.9999999999949
 31
0.0
  0
LINE
  5
12A
330
1E
100
AcDbEntity
  8
DETAIL
  6
CONTINUOUS
 62
     5
100
AcDbLine
 10
183.0000000000054
 20
285.9999999999977
 30
0.0
 11
183.0000000000035
 21
175.9999999999976
 31
0.0
  0
LINE
  5
12B
330
1E
100
AcDbEntity
  8
DETAIL
  6
CONTINUOUS
 62
     5
100
AcDbLine
 10
473.0000000000053
 20
337.9999999999954
 30
0.0
 11
473.0000000000017
 21
44.99999999999545
 31
0.0
  0
LINE
  5
12C
330
1E
100
AcDbEntity
  8
NOTE
  6
CONTINUOUS
 62
     4
100
AcDbLine
 10
163.0000000000035
 20
144.9999999999985
 30
0.0
 11
203.0000000000035
 21
144.9999999999981
 31
0.0
  0
LINE
  5
12D
330
1E
100
AcDbEntity
  8
NOTE
  6
CONTINUOUS
 62
     4
100
AcDbLine
 10
183.0000000000017
 20
124.999999999998
 30
0.0
 11
183.0000000000035
 21
164.999999999998
 31
0.0
  0
LINE
  5
12E
330
1E
100
AcDbEntity
  8
NOTE
  6
CONTINUOUS
 62
     4
100
AcDbLine
 10
183.0000000000054
 20
283.999999999998
 30
0.0
 11
183.0000000000054
 21
323.9999999999982
 31
0.0
  0
LINE
  5
12F
330
1E
100
AcDbEntity
  8
NOTE
  6
CONTINUOUS
 62
     4
100
AcDbLine
 10
163.0000000000054
 20
303.9999999999985
 30
0.0
 11
203.0000000000054
 21
303.999999999998
 31
0.0
  0
LINE
  5
130
330
1E
100
AcDbEntity
  8
SIZE
  6
CONTINUOUS
 62
    30
100
AcDbLine
 10
0.0000000000054582
 20
415.8640660000001
 30
0.0
 11
0.0000000000054791
 21
758.109015011145
 31
0.0
  0
LINE
  5
131
330
1E
100
AcDbEntity
  8
SIZE
  6
CONTINUOUS
 62
    30
100
AcDbLine
 10
-472.9999999999945
 20
358.000000000005
 30
0.0
 11
-472.9999999999945
 21
758.109015011145
 31
0.0
  0
LINE
  5
132
330
1E
100
AcDbEntity
  8
SIZE
  6
CONTINUOUS
 62
    30
100
AcDbLine
 10
-9.999999999994525
 20
728.1090150111451
 30
0.0
 11
-462.9999999999944
 21
728.1090150111451
 31
0.0
  0
CIRCLE
  5
133
330
1E
100
AcDbEntity
  8
SIZE
  6
CONTINUOUS
 62
    30
100
AcDbCircle
 10
0.0000000000054773
 20
728.1090150111451
 30
0.0
 40
5.0
  0
LINE
  5
134
330
1E
100
AcDbEntity
  8
SIZE
  6
CONTINUOUS
 62
    30
100
AcDbLine
 10
-4.999999999994522
 20
728.1090150111451
 30
0.0
 11
-9.999999999994525
 21
728.1090150111451
 31
0.0
  0
CIRCLE
  5
135
330
1E
100
AcDbEntity
  8
SIZE
  6
CONTINUOUS
 62
    30
100
AcDbCircle
 10
-472.9999999999945
 20
728.1090150111451
 30
0.0
 40
5.0
  0
LINE
  5
136
330
1E
100
AcDbEntity
  8
SIZE
  6
CONTINUOUS
 62
    30
100
AcDbLine
 10
-467.9999999999944
 20
728.1090150111451
 30
0.0
 11
-462.9999999999944
 21
728.1090150111451
 31
0.0
  0
TEXT
  5
137
330
1E
100
AcDbEntity
  8
SIZE
  6
CONTINUOUS
 62
    30
100
AcDbText
 10
-310.5571428571373
 20
748.109015011145
 30
0.0
 40
64.0
  1
473
 41
0.9
 72
     1
 11
-236.4999999999944
 21
748.109015011145
 31
0.0
100
AcDbText
  0
POINT
  5
138
330
1E
100
AcDbEntity
  8
DEFPOINTS
  6
CONTINUOUS
 62
     7
100
AcDbPoint
 10
0.000000000005457
 20
395.864066
 30
0.0
  0
POINT
  5
139
330
1E
100
AcDbEntity
  8
DEFPOINTS
  6
CONTINUOUS
 62
     7
100
AcDbPoint
 10
-472.9999999999945
 20
338.000000000005
 30
0.0
  0
POINT
  5
13A
330
1E
100
AcDbEntity
  8
DEFPOINTS
  6
CONTINUOUS
 62
     7
100
AcDbPoint
 10
-472.9999999999945
 20
728.1090150111451
 30
0.0
  0
LINE
  5
13B
330
1E
100
AcDbEntity
  8
NOTE
  6
CONTINUOUS
 62
     4
100
AcDbLine
 10
-251.9999999999944
 20
304.0000000000012
 30
0.0
 11
-681.4917744945687
 21
984.2995962984016
 31
0.0
  0
LINE
  5
13C
330
1E
100
AcDbEntity
  8
SIZE
  6
CONTINUOUS
 62
    30
100
AcDbLine
 10
-472.9999999999945
 20
358.000000000005
 30
0.0
 11
-472.9999999999945
 21
637.3870000000033
 31
0.0
  0
LINE
  5
13D
330
1E
100
AcDbEntity
  8
SIZE
  6
CONTINUOUS
 62
    30
100
AcDbLine
 10
-251.9999999999944
 20
344.0000000000026
 30
0.0
 11
-251.9999999999944
 21
637.3870000000033
 31
0.0
  0
LINE
  5
13E
330
1E
100
AcDbEntity
  8
SIZE
  6
CONTINUOUS
 62
    30
100
AcDbLine
 10
-462.9999999999944
 20
607.3870000000034
 30
0.0
 11
-261.9999999999945
 21
607.3870000000034
 31
0.0
  0
CIRCLE
  5
13F
330
1E
100
AcDbEntity
  8
SIZE
  6
CONTINUOUS
 62
    30
100
AcDbCircle
 10
-472.9999999999945
 20
607.3870000000034
 30
0.0
 40
5.0
  0
LINE
  5
140
330
1E
100
AcDbEntity
  8
SIZE
  6
CONTINUOUS
 62
    30
100
AcDbLine
 10
-467.9999999999944
 20
607.3870000000034
 30
0.0
 11
-462.9999999999944
 21
607.3870000000034
 31
0.0
  0
CIRCLE
  5
141
330
1E
100
AcDbEntity
  8
SIZE
  6
CONTINUOUS
 62
    30
100
AcDbCircle
 10
-251.9999999999944
 20
607.3870000000034
 30
0.0
 40
5.0
  0
LINE
  5
142
330
1E
100
AcDbEntity
  8
SIZE
  6
CONTINUOUS
 62
    30
100
AcDbLine
 10
-256.9999999999944
 20
607.3870000000034
 30
0.0
 11
-261.9999999999945
 21
607.3870000000034
 31
0.0
  0
TEXT
  5
143
330
1E
100
AcDbEntity
  8
SIZE
  6
CONTINUOUS
 62
    30
100
AcDbText
 10
-418.7504682657976
 20
627.3870000000033
 30
0.0
 40
64.0
  1
221
 41
0.9
 72
     1
 11
-357.0361825515118
 21
627.3870000000033
 31
0.0
100
AcDbText
  0
POINT
  5
144
330
1E
100
AcDbEntity
  8
DEFPOINTS
  6
CONTINUOUS
 62
     7
100
AcDbPoint
 10
-472.9999999999945
 20
338.000000000005
 30
0.0
  0
POINT
  5
145
330
1E
100
AcDbEntity
  8
DEFPOINTS
  6
CONTINUOUS
 62
     7
100
AcDbPoint
 10
-251.9999999999944
 20
324.0000000000026
 30
0.0
  0
POINT
  5
146
330
1E
100
AcDbEntity
  8
DEFPOINTS
  6
CONTINUOUS
 62
     7
100
AcDbPoint
 10
-251.9999999999944
 20
607.3870000000034
 30
0.0
  0
LINE
  5
147
330
1E
100
AcDbEntity
  8
SIZE
  6
CONTINUOUS
 62
    30
100
AcDbLine
 10
-452.9999999999945
 20
338.0000000000045
 30
0.0
 11
-308.7474997298139
 21
338.0000000000045
 31
0.0
  0
LINE
  5
148
330
1E
100
AcDbEntity
  8
SIZE
  6
CONTINUOUS
 62
    30
100
AcDbLine
 10
-291.9999999999944
 20
304.0000000000026
 30
0.0
 11
-368.7474997298139
 21
304.0000000000026
 31
0.0
  0
LINE
  5
149
330
1E
100
AcDbEntity
  8
SIZE
  6
CONTINUOUS
 62
    30
100
AcDbLine
 10
-338.7474997298139
 20
294.0000000000026
 30
0.0
 11
-338.7474997298139
 21
284.0000000000026
 31
0.0
  0
LINE
  5
14A
330
1E
100
AcDbEntity
  8
SIZE
  6
CONTINUOUS
 62
    30
100
AcDbLine
 10
-338.7474997298139
 20
348.0000000000043
 30
0.0
 11
-338.7474997298139
 21
494.0000000000064
 31
0.0
  0
LINE
  5
14B
330
1E
100
AcDbEntity
  8
SIZE
  6
CONTINUOUS
 62
    30
100
AcDbLine
 10
-338.7474997298139
 20
304.0000000000026
 30
0.0
 11
-338.7474997298139
 21
338.0000000000045
 31
0.0
  0
CIRCLE
  5
14C
330
1E
100
AcDbEntity
  8
SIZE
  6
CONTINUOUS
 62
    30
100
AcDbCircle
 10
-338.7474997298139
 20
304.0000000000026
 30
0.0
 40
5.0
  0
LINE
  5
14D
330
1E
100
AcDbEntity
  8
SIZE
  6
CONTINUOUS
 62
    30
100
AcDbLine
 10
-338.7474997298139
 20
299.0000000000026
 30
0.0
 11
-338.7474997298139
 21
294.0000000000026
 31
0.0
  0
CIRCLE
  5
14E
330
1E
100
AcDbEntity
  8
SIZE
  6
CONTINUOUS
 62
    30
100
AcDbCircle
 10
-338.7474997298139
 20
338.0000000000045
 30
0.0
 40
5.0
  0
LINE
  5
14F
330
1E
100
AcDbEntity
  8
SIZE
  6
CONTINUOUS
 62
    30
100
AcDbLine
 10
-338.7474997298139
 20
343.0000000000045
 30
0.0
 11
-338.7474997298139
 21
348.0000000000044
 31
0.0
  0
TEXT
  5
150
330
1E
100
AcDbEntity
  8
SIZE
  6
CONTINUOUS
 62
    30
100
AcDbText
 10
-358.747499729814
 20
378.0000000000063
 30
0.0
 40
64.0
  1
34
 50
90.0
 41
0.9
 72
     1
 11
-358.747499729814
 21
426.0000000000062
 31
0.0
100
AcDbText
  0
POINT
  5
151
330
1E
100
AcDbEntity
  8
DEFPOINTS
  6
CONTINUOUS
 62
     7
100
AcDbPoint
 10
-472.9999999999945
 20
338.0000000000045
 30
0.0
  0
POINT
  5
152
330
1E
100
AcDbEntity
  8
DEFPOINTS
  6
CONTINUOUS
 62
     7
100
AcDbPoint
 10
-271.9999999999945
 20
304.0000000000026
 30
0.0
  0
POINT
  5
153
330
1E
100
AcDbEntity
  8
DEFPOINTS
  6
CONTINUOUS
 62
     7
100
AcDbPoint
 10
-338.7474997298139
 20
304.0000000000026
 30
0.0
  0
LINE
  5
154
330
1E
100
AcDbEntity
  8
SIZE
  6
CONTINUOUS
 62
    30
100
AcDbLine
 10
-291.9999999999944
 20
304.0000000000026
 30
0.0
 11
-368.7474997298121
 21
304.0000000000026
 31
0.0
  0
LINE
  5
155
330
1E
100
AcDbEntity
  8
SIZE
  6
CONTINUOUS
 62
    30
100
AcDbLine
 10
-291.9999999999962
 20
145.0000000000027
 30
0.0
 11
-368.7474997298121
 21
145.0000000000027
 31
0.0
  0
LINE
  5
156
330
1E
100
AcDbEntity
  8
SIZE
  6
CONTINUOUS
 62
    30
100
AcDbLine
 10
-338.747499729812
 20
294.0000000000026
 30
0.0
 11
-338.747499729812
 21
155.0000000000027
 31
0.0
  0
CIRCLE
  5
157
330
1E
100
AcDbEntity
  8
SIZE
  6
CONTINUOUS
 62
    30
100
AcDbCircle
 10
-338.747499729812
 20
304.0000000000026
 30
0.0
 40
5.0
  0
LINE
  5
158
330
1E
100
AcDbEntity
  8
SIZE
  6
CONTINUOUS
 62
    30
100
AcDbLine
 10
-338.747499729812
 20
299.0000000000026
 30
0.0
 11
-338.747499729812
 21
294.0000000000026
 31
0.0
  0
CIRCLE
  5
159
330
1E
100
AcDbEntity
  8
SIZE
  6
CONTINUOUS
 62
    30
100
AcDbCircle
 10
-338.747499729812
 20
145.0000000000027
 30
0.0
 40
5.0
  0
LINE
  5
15A
330
1E
100
AcDbEntity
  8
SIZE
  6
CONTINUOUS
 62
    30
100
AcDbLine
 10
-338.747499729812
 20
150.0000000000027
 30
0.0
 11
-338.747499729812
 21
155.0000000000027
 31
0.0
  0
TEXT
  5
15B
330
1E
100
AcDbEntity
  8
SIZE
  6
CONTINUOUS
 62
    30
100
AcDbText
 10
-358.7474997298122
 20
157.3000000000026
 30
0.0
 40
64.0
  1
159
 50
90.0
 41
0.9
 72
     1
 11
-358.7474997298122
 21
224.5000000000026
 31
0.0
100
AcDbText
  0
POINT
  5
15C
330
1E
100
AcDbEntity
  8
DEFPOINTS
  6
CONTINUOUS
 62
     7
100
AcDbPoint
 10
-271.9999999999945
 20
304.0000000000026
 30
0.0
  0
POINT
  5
15D
330
1E
100
AcDbEntity
  8
DEFPOINTS
  6
CONTINUOUS
 62
     7
100
AcDbPoint
 10
-271.9999999999962
 20
145.0000000000027
 30
0.0
  0
POINT
  5
15E
330
1E
100
AcDbEntity
  8
DEFPOINTS
  6
CONTINUOUS
 62
     7
100
AcDbPoint
 10
-338.747499729812
 20
145.0000000000027
 30
0.0
  0
LINE
  5
15F
330
1E
100
AcDbEntity
  8
SIZE
  6
CONTINUOUS
 62
    30
100
AcDbLine
 10
-502.999999999998
 20
32.00000000000454
 30
0.0
 11
-502.999999999998
 21
-137.1193382366481
 31
0.0
  0
LINE
  5
160
330
1E
100
AcDbEntity
  8
SIZE
  6
CONTINUOUS
 62
    30
100
AcDbLine
 10
-472.999999999998
 20
25.000000000005
 30
0.0
 11
-472.999999999998
 21
-137.1193382366481
 31
0.0
  0
LINE
  5
161
330
1E
100
AcDbEntity
  8
SIZE
  6
CONTINUOUS
 62
    30
100
AcDbLine
 10
-512.9999999999982
 20
-107.1193382366482
 30
0.0
 11
-522.999999999998
 21
-107.1193382366482
 31
0.0
  0
LINE
  5
162
330
1E
100
AcDbEntity
  8
SIZE
  6
CONTINUOUS
 62
    30
100
AcDbLine
 10
-462.9999999999982
 20
-107.1193382366482
 30
0.0
 11
-319.7428571428552
 21
-107.1193382366482
 31
0.0
  0
LINE
  5
163
330
1E
100
AcDbEntity
  8
SIZE
  6
CONTINUOUS
 62
    30
100
AcDbLine
 10
-502.999999999998
 20
-107.1193382366482
 30
0.0
 11
-472.999999999998
 21
-107.1193382366482
 31
0.0
  0
CIRCLE
  5
164
330
1E
100
AcDbEntity
  8
SIZE
  6
CONTINUOUS
 62
    30
100
AcDbCircle
 10
-502.999999999998
 20
-107.1193382366482
 30
0.0
 40
5.0
  0
LINE
  5
165
330
1E
100
AcDbEntity
  8
SIZE
  6
CONTINUOUS
 62
    30
100
AcDbLine
 10
-507.999999999998
 20
-107.1193382366482
 30
0.0
 11
-512.9999999999982
 21
-107.1193382366482
 31
0.0
  0
CIRCLE
  5
166
330
1E
100
AcDbEntity
  8
SIZE
  6
CONTINUOUS
 62
    30
100
AcDbCircle
 10
-472.999999999998
 20
-107.1193382366482
 30
0.0
 40
5.0
  0
LINE
  5
167
330
1E
100
AcDbEntity
  8
SIZE
  6
CONTINUOUS
 62
    30
100
AcDbLine
 10
-467.9999999999981
 20
-107.1193382366482
 30
0.0
 11
-462.999999999998
 21
-107.1193382366482
 31
0.0
  0
TEXT
  5
168
330
1E
100
AcDbEntity
  8
SIZE
  6
CONTINUOUS
 62
    30
100
AcDbText
 10
-432.999999999998
 20
-87.11933823664821
 30
0.0
 40
64.0
  1
30
 41
0.9
 72
     1
 11
-386.3714285714266
 21
-87.11933823664821
 31
0.0
100
AcDbText
  0
POINT
  5
169
330
1E
100
AcDbEntity
  8
DEFPOINTS
  6
CONTINUOUS
 62
     7
100
AcDbPoint
 10
-502.999999999998
 20
52.00000000000454
 30
0.0
  0
POINT
  5
16A
330
1E
100
AcDbEntity
  8
DEFPOINTS
  6
CONTINUOUS
 62
     7
100
AcDbPoint
 10
-472.999999999998
 20
45.000000000005
 30
0.0
  0
POINT
  5
16B
330
1E
100
AcDbEntity
  8
DEFPOINTS
  6
CONTINUOUS
 62
     7
100
AcDbPoint
 10
-472.999999999998
 20
-107.1193382366482
 30
0.0
  0
LINE
  5
16C
330
1E
100
AcDbEntity
  8
DETAIL
  6
CONTINUOUS
 62
     5
100
AcDbLine
 10
-251.9999999999944
 20
286.0000000000022
 30
0.0
 11
-251.9999999999963
 21
176.0000000000021
 31
0.0
  0
LINE
  5
16D
330
1E
100
AcDbEntity
  8
BASIS
  6
DASHDOT
 62
     6
100
AcDbLine
 10
0.000000000005457
 20
395.864066
 30
0.0
 11
0.0
 21
-76.41819699999998
 31
0.0
  0
CIRCLE
  5
16E
330
1E
100
AcDbEntity
  8
ARRANGE
  6
CONTINUOUS
 62
     1
100
AcDbCircle
 10
0.0
 20
0.0
 30
0.0
 40
40.0
  0
LINE
  5
16F
330
1E
100
AcDbEntity
  8
NOTE
  6
CONTINUOUS
 62
     4
100
AcDbLine
 10
-34.49999999999818
 20
125.0000000000003
 30
0.0
 11
-34.49999999999636
 21
165.0000000000003
 31
0.0
  0
LINE
  5
170
330
1E
100
AcDbEntity
  8
NOTE
  6
CONTINUOUS
 62
     4
100
AcDbLine
 10
-54.49999999999636
 20
145.0000000000003
 30
0.0
 11
-14.49999999999636
 21
145.0000000000003
 31
0.0
  0
LINE
  5
171
330
1E
100
AcDbEntity
  8
NOTE
  6
CONTINUOUS
 62
     4
100
AcDbLine
 10
-251.999999999998
 20
125.0000000000027
 30
0.0
 11
-251.9999999999963
 21
165.0000000000027
 31
0.0
  0
LINE
  5
172
330
1E
100
AcDbEntity
  8
NOTE
  6
CONTINUOUS
 62
     4
100
AcDbLine
 10
-271.9999999999962
 20
145.0000000000027
 30
0.0
 11
-231.9999999999962
 21
145.0000000000021
 31
0.0
  0
LINE
  5
173
330
1E
100
AcDbEntity
  8
SIZE
  6
CONTINUOUS
 62
    30
100
AcDbLine
 10
-34.49999999999454
 20
344.0000000000003
 30
0.0
 11
-34.49999999999453
 21
509.7928008183494
 31
0.0
  0
LINE
  5
174
330
1E
100
AcDbEntity
  8
SIZE
  6
CONTINUOUS
 62
    30
100
AcDbLine
 10
-251.9999999999944
 20
344.0000000000026
 30
0.0
 11
-251.9999999999944
 21
509.7928008183494
 31
0.0
  0
LINE
  5
175
330
1E
100
AcDbEntity
  8
SIZE
  6
CONTINUOUS
 62
    30
100
AcDbLine
 10
-24.49999999999453
 20
479.7928008183494
 30
0.0
 11
-14.49999999999453
 21
479.7928008183494
 31
0.0
  0
LINE
  5
176
330
1E
100
AcDbEntity
  8
SIZE
  6
CONTINUOUS
 62
    30
100
AcDbLine
 10
-261.9999999999945
 20
479.7928008183494
 30
0.0
 11
-271.9999999999945
 21
479.7928008183494
 31
0.0
  0
LINE
  5
177
330
1E
100
AcDbEntity
  8
SIZE
  6
CONTINUOUS
 62
    30
100
AcDbLine
 10
-34.49999999999453
 20
479.7928008183494
 30
0.0
 11
-251.9999999999944
 21
479.7928008183494
 31
0.0
  0
CIRCLE
  5
178
330
1E
100
AcDbEntity
  8
SIZE
  6
CONTINUOUS
 62
    30
100
AcDbCircle
 10
-34.49999999999453
 20
479.7928008183494
 30
0.0
 40
5.0
  0
LINE
  5
179
330
1E
100
AcDbEntity
  8
SIZE
  6
CONTINUOUS
 62
    30
100
AcDbLine
 10
-29.49999999999453
 20
479.7928008183494
 30
0.0
 11
-24.49999999999453
 21
479.7928008183494
 31
0.0
  0
CIRCLE
  5
17A
330
1E
100
AcDbEntity
  8
SIZE
  6
CONTINUOUS
 62
    30
100
AcDbCircle
 10
-251.9999999999944
 20
479.7928008183494
 30
0.0
 40
5.0
  0
LINE
  5
17B
330
1E
100
AcDbEntity
  8
SIZE
  6
CONTINUOUS
 62
    30
100
AcDbLine
 10
-256.9999999999944
 20
479.7928008183494
 30
0.0
 11
-261.9999999999945
 21
479.7928008183494
 31
0.0
  0
TEXT
  5
17C
330
1E
100
AcDbEntity
  8
SIZE
  6
CONTINUOUS
 62
    30
100
AcDbText
 10
-252.9642857142801
 20
499.7928008183494
 30
0.0
 40
64.0
  1
217.5
 41
0.9
 72
     1
 11
-143.2499999999944
 21
499.7928008183494
 31
0.0
100
AcDbText
  0
POINT
  5
17D
330
1E
100
AcDbEntity
  8
DEFPOINTS
  6
CONTINUOUS
 62
     7
100
AcDbPoint
 10
-34.49999999999454
 20
324.0000000000004
 30
0.0
  0
POINT
  5
17E
330
1E
100
AcDbEntity
  8
DEFPOINTS
  6
CONTINUOUS
 62
     7
100
AcDbPoint
 10
-251.9999999999944
 20
324.0000000000026
 30
0.0
  0
POINT
  5
17F
330
1E
100
AcDbEntity
  8
DEFPOINTS
  6
CONTINUOUS
 62
     7
100
AcDbPoint
 10
-251.9999999999944
 20
479.7928008183494
 30
0.0
  0
LINE
  5
180
330
1E
100
AcDbEntity
  8
NOTE
  6
CONTINUOUS
 62
     4
100
AcDbLine
 10
-34.49999999999454
 20
284.0000000000003
 30
0.0
 11
-34.49999999999454
 21
324.0000000000004
 31
0.0
  0
LINE
  5
181
330
1E
100
AcDbEntity
  8
NOTE
  6
CONTINUOUS
 62
     4
100
AcDbLine
 10
-54.49999999999453
 20
304.0000000000004
 30
0.0
 11
-14.49999999999453
 21
304.0000000000004
 31
0.0
  0
LINE
  5
182
330
1E
100
AcDbEntity
  8
NOTE
  6
CONTINUOUS
 62
     4
100
AcDbLine
 10
-251.9999999999944
 20
284.0000000000026
 30
0.0
 11
-251.9999999999944
 21
324.0000000000026
 31
0.0
  0
LINE
  5
183
330
1E
100
AcDbEntity
  8
NOTE
  6
CONTINUOUS
 62
     4
100
AcDbLine
 10
-271.9999999999945
 20
304.0000000000026
 30
0.0
 11
-231.9999999999944
 21
304.0000000000022
 31
0.0
  0
LWPOLYLINE
  5
184
330
1E
100
AcDbEntity
  8
NOTE
  6
CONTINUOUS
 62
     4
100
AcDbPolyline
 90
        3
 70
     0
 43
0.0
 10
-281.3089961925724
 20
331.2209987260388
 10
-251.9999999999944
 20
304.0000000000012
 10
-263.7718350300419
 20
342.2285738750129
  0
LINE
  5
189
330
1E
100
AcDbEntity
  8
NOTE
  6
CONTINUOUS
 62
     4
100
AcDbLine
 10
-586.9999999999962
 20
193.0000000000054
 30
0.0
 11
-586.9999999999962
 21
233.0000000000054
 31
0.0
  0
LINE
  5
18A
330
1E
100
AcDbEntity
  8
DETAIL
  6
CONTINUOUS
 62
     5
100
AcDbLine
 10
-586.9999999999962
 20
238.000000000005
 30
0.0
 11
-586.9999999999962
 21
188.0000000000054
 31
0.0
  0
LINE
  5
18B
330
1E
100
AcDbEntity
  8
NOTE
  6
CONTINUOUS
 62
     4
100
AcDbLine
 10
-545.9999999999962
 20
196.0000000000054
 30
0.0
 11
-545.9999999999945
 21
236.0000000000054
 31
0.0
  0
LINE
  5
18C
330
1E
100
AcDbEntity
  8
NOTE
  6
CONTINUOUS
 62
     4
100
AcDbLine
 10
-539.9999999999962
 20
196.0000000000054
 30
0.0
 11
-539.9999999999945
 21
236.0000000000054
 31
0.0
  0
LWPOLYLINE
  5
18D
330
1E
100
AcDbEntity
  8
NOTE
  6
CONTINUOUS
 62
     4
100
AcDbPolyline
 90
        3
 70
     0
 43
0.0
 10
-576.4872907671887
 20
232.39138856335
 10
-539.9999999999962
 20
216.0000000000054
 10
-563.4032267379534
 20
248.439004012986
  0
LINE
  5
192
330
1E
100
AcDbEntity
  8
DETAIL
  6
CONTINUOUS
 62
     5
100
AcDbLine
 10
-472.9999999999945
 20
338.000000000005
 30
0.0
 11
-472.999999999998
 21
45.000000000005
 31
0.0
  0
ARC
  5
193
330
1E
100
AcDbEntity
  8
DETAIL
  6
CONTINUOUS
 62
     5
100
AcDbCircle
 10
-617.9999999999981
 20
-0.9999999999940881
 30
0.0
 40
7.0
100
AcDbArc
 50
179.9999999999994
 51
269.9999999999993
  0
LINE
  5
194
330
1E
100
AcDbEntity
  8
SERVICESPACE
  6
DASHDOT
 62
     2
100
AcDbLine
 10
-664.999999999998
 20
0.0000000000068212
 30
0.0
 11
-604.9999999999981
 21
0.0000000000059117
 31
0.0
  0
LINE
  5
195
330
1E
100
AcDbEntity
  8
SERVICESPACE
  6
DASHDOT
 62
     2
100
AcDbLine
 10
-664.999999999998
 20
20.00000000000682
 30
0.0
 11
-604.9999999999981
 21
20.00000000000591
 31
0.0
  0
LINE
  5
196
330
1E
100
AcDbEntity
  8
DETAIL
  6
CONTINUOUS
 62
     5
100
AcDbLine
 10
-592.9999999999981
 20
45.00000000000546
 30
0.0
 11
-592.9999999999981
 21
0.000000000005457
 31
0.0
  0
LINE
  5
197
330
1E
100
AcDbEntity
  8
SERVICESPACE
  6
DASHDOT
 62
     2
100
AcDbLine
 10
-604.9999999999981
 20
20.00000000000591
 30
0.0
 11
-604.9999999999981
 21
0.0000000000059117
 31
0.0
  0
LWPOLYLINE
  5
198
330
1E
100
AcDbEntity
  8
NOTE
  6
CONTINUOUS
 62
     4
100
AcDbPolyline
 90
        3
 70
     0
 43
0.0
 10
-515.0894404365552
 20
33.87067547728884
 10
-502.999999999998
 20
72.00000000000454
 10
-532.5344252917439
 20
45.02375669836101
  0
LINE
  5
19D
330
1E
100
AcDbEntity
  8
NOTE
  6
CONTINUOUS
 62
     4
100
AcDbLine
 10
-522.999999999998
 20
72.000000000005
 30
0.0
 11
-482.9999999999982
 21
72.00000000000454
 31
0.0
  0
CIRCLE
  5
19E
330
1E
100
AcDbEntity
  8
FIX
  6
CONTINUOUS
 62
    11
100
AcDbCircle
 10
-496.9999999999963
 20
148.0000000000048
 30
0.0
 40
20.0
  0
LINE
  5
19F
330
1E
100
AcDbEntity
  8
NOTE
  6
CONTINUOUS
 62
     4
100
AcDbLine
 10
-516.9999999999962
 20
148.0000000000048
 30
0.0
 11
-476.9999999999964
 21
148.0000000000048
 31
0.0
  0
LINE
  5
1A0
330
1E
100
AcDbEntity
  8
DETAIL
  6
CONTINUOUS
 62
     5
100
AcDbLine
 10
-522.9999999999964
 20
148.0000000000053
 30
0.0
 11
-472.9999999999964
 21
148.0000000000048
 31
0.0
  0
LINE
  5
1A1
330
1E
100
AcDbEntity
  8
DETAIL
  6
CONTINUOUS
 62
     5
100
AcDbLine
 10
-472.9999999999964
 20
156.0800000000049
 30
0.0
 11
-586.9999999999962
 21
188.0000000000059
 31
0.0
  0
LINE
  5
1A2
330
1E
100
AcDbEntity
  8
DETAIL
  6
CONTINUOUS
 62
     5
100
AcDbLine
 10
-522.9999999999964
 20
145.7000000000052
 30
0.0
 11
-472.9999999999964
 21
145.7000000000048
 31
0.0
  0
LINE
  5
1A3
330
1E
100
AcDbEntity
  8
NOTE
  6
CONTINUOUS
 62
     4
100
AcDbLine
 10
-502.999999999998
 20
52.00000000000454
 30
0.0
 11
-502.999999999998
 21
92.00000000000454
 31
0.0
  0
LINE
  5
1A4
330
1E
100
AcDbEntity
  8
DETAIL
  6
CONTINUOUS
 62
     5
100
AcDbLine
 10
-502.999999999998
 20
84.50000000000455
 30
0.0
 11
-502.999999999998
 21
59.50000000000454
 31
0.0
  0
LINE
  5
1A5
330
1E
100
AcDbEntity
  8
NOTE
  6
CONTINUOUS
 62
     4
100
AcDbLine
 10
-496.9999999999963
 20
128.0000000000048
 30
0.0
 11
-496.9999999999963
 21
168.000000000005
 31
0.0
  0
LINE
  5
1A6
330
1E
100
AcDbEntity
  8
DETAIL
  6
CONTINUOUS
 62
     5
100
AcDbLine
 10
-472.9999999999964
 20
59.50000000000454
 30
0.0
 11
-502.999999999998
 21
59.50000000000409
 31
0.0
  0
LINE
  5
1A7
330
1E
100
AcDbEntity
  8
DETAIL
  6
CONTINUOUS
 62
     5
100
AcDbLine
 10
-472.9999999999964
 20
84.50000000000455
 30
0.0
 11
-502.999999999998
 21
84.50000000000409
 31
0.0
  0
LINE
  5
1A8
330
1E
100
AcDbEntity
  8
NOTE
  6
CONTINUOUS
 62
     4
100
AcDbLine
 10
-565.9999999999962
 20
216.0000000000059
 30
0.0
 11
-525.9999999999962
 21
216.0000000000054
 31
0.0
  0
LINE
  5
1A9
330
1E
100
AcDbEntity
  8
NOTE
  6
CONTINUOUS
 62
     4
100
AcDbLine
 10
-559.9999999999964
 20
216.0000000000054
 30
0.0
 11
-519.9999999999962
 21
216.0000000000054
 31
0.0
  0
LWPOLYLINE
  5
1AA
330
1E
100
AcDbEntity
  8
NOTE
  6
CONTINUOUS
 62
     4
100
AcDbPolyline
 90
        3
 70
     0
 43
0.0
 10
-563.2066891758804
 20
179.890031301414
 10
-545.9999999999962
 20
216.0000000000048
 10
-578.95641391153
 20
193.3311940682255
  0
LINE
  5
1AF
330
1E
100
AcDbEntity
  8
DETAIL
  6
CONTINUOUS
 62
     5
100
AcDbLine
 10
-522.9999999999964
 20
148.0000000000053
 30
0.0
 11
-522.9999999999964
 21
145.7000000000056
 31
0.0
  0
LINE
  5
1B0
330
1E
100
AcDbEntity
  8
NOTE
  6
CONTINUOUS
 62
     4
100
AcDbLine
 10
-606.9999999999962
 20
213.0000000000054
 30
0.0
 11
-566.9999999999962
 21
213.0000000000054
 31
0.0
  0
LWPOLYLINE
  5
1B1
330
1E
100
AcDbEntity
  8
NOTE
  6
CONTINUOUS
 62
     4
100
AcDbPolyline
 90
        3
 70
     0
 43
0.0
 10
-607.7224889999961
 20
178.7862830000053
 10
-586.9999999999962
 20
213.0000000000054
 10
-622.0530609999967
 20
193.7312960000057
  0
LINE
  5
1B6
330
1E
100
AcDbEntity
  8
DETAIL
  6
CONTINUOUS
 62
     5
100
AcDbLine
 10
-624.999999999998
 20
0.0000000000059117
 30
0.0
 11
-624.999999999998
 21
-0.9999999999940881
 31
0.0
  0
LINE
  5
1B7
330
1E
100
AcDbEntity
  8
SIZE
  6
CONTINUOUS
 62
    30
100
AcDbLine
 10
-492.9999999999944
 20
338.000000000005
 30
0.0
 11
-809.6873285929774
 21
338.000000000005
 31
0.0
  0
LINE
  5
1B8
330
1E
100
AcDbEntity
  8
SIZE
  6
CONTINUOUS
 62
    30
100
AcDbLine
 10
-512.9999999999943
 20
278.0000000000045
 30
0.0
 11
-809.6873285929774
 21
278.0000000000045
 31
0.0
  0
LINE
  5
1B9
330
1E
100
AcDbEntity
  8
SIZE
  6
CONTINUOUS
 62
    30
100
AcDbLine
 10
-779.6873285929775
 20
328.0000000000049
 30
0.0
 11
-779.6873285929775
 21
288.0000000000046
 31
0.0
  0
CIRCLE
  5
1BA
330
1E
100
AcDbEntity
  8
SIZE
  6
CONTINUOUS
 62
    30
100
AcDbCircle
 10
-779.6873285929775
 20
338.000000000005
 30
0.0
 40
5.0
  0
LINE
  5
1BB
330
1E
100
AcDbEntity
  8
SIZE
  6
CONTINUOUS
 62
    30
100
AcDbLine
 10
-779.6873285929775
 20
333.000000000005
 30
0.0
 11
-779.6873285929775
 21
328.0000000000049
 31
0.0
  0
CIRCLE
  5
1BC
330
1E
100
AcDbEntity
  8
SIZE
  6
CONTINUOUS
 62
    30
100
AcDbCircle
 10
-779.6873285929775
 20
278.0000000000045
 30
0.0
 40
5.0
  0
LINE
  5
1BD
330
1E
100
AcDbEntity
  8
SIZE
  6
CONTINUOUS
 62
    30
100
AcDbLine
 10
-779.6873285929775
 20
283.0000000000044
 30
0.0
 11
-779.6873285929775
 21
288.0000000000044
 31
0.0
  0
TEXT
  5
1BE
330
1E
100
AcDbEntity
  8
SIZE
  6
CONTINUOUS
 62
    30
100
AcDbText
 10
-799.6873285929779
 20
261.3714285714333
 30
0.0
 40
64.0
  1
60
 50
90.0
 41
0.9
 72
     1
 11
-799.6873285929779
 21
308.0000000000048
 31
0.0
100
AcDbText
  0
POINT
  5
1BF
330
1E
100
AcDbEntity
  8
DEFPOINTS
  6
CONTINUOUS
 62
     7
100
AcDbPoint
 10
-472.9999999999945
 20
338.000000000005
 30
0.0
  0
POINT
  5
1C0
330
1E
100
AcDbEntity
  8
DEFPOINTS
  6
CONTINUOUS
 62
     7
100
AcDbPoint
 10
-492.9999999999944
 20
278.0000000000045
 30
0.0
  0
POINT
  5
1C1
330
1E
100
AcDbEntity
  8
DEFPOINTS
  6
CONTINUOUS
 62
     7
100
AcDbPoint
 10
-779.6873285929775
 20
278.0000000000045
 30
0.0
  0
LINE
  5
1C2
330
1E
100
AcDbEntity
  8
SIZE
  6
CONTINUOUS
 62
    30
100
AcDbLine
 10
-472.9999999999945
 20
358.0000000000044
 30
0.0
 11
-472.9999999999945
 21
456.1000073814551
 31
0.0
  0
LINE
  5
1C3
330
1E
100
AcDbEntity
  8
SIZE
  6
CONTINUOUS
 62
    30
100
AcDbLine
 10
-539.9999999999945
 20
256.0000000000054
 30
0.0
 11
-539.9999999999945
 21
456.1000073814551
 31
0.0
  0
LINE
  5
1C4
330
1E
100
AcDbEntity
  8
SIZE
  6
CONTINUOUS
 62
    30
100
AcDbLine
 10
-482.9999999999945
 20
426.1000073814551
 30
0.0
 11
-529.9999999999945
 21
426.1000073814551
 31
0.0
  0
LINE
  5
1C5
330
1E
100
AcDbEntity
  8
SIZE
  6
CONTINUOUS
 62
    30
100
AcDbLine
 10
-539.9999999999945
 20
426.1000073814551
 30
0.0
 11
-683.2571428571375
 21
426.1000073814551
 31
0.0
  0
CIRCLE
  5
1C6
330
1E
100
AcDbEntity
  8
SIZE
  6
CONTINUOUS
 62
    30
100
AcDbCircle
 10
-472.9999999999945
 20
426.1000073814551
 30
0.0
 40
5.0
  0
LINE
  5
1C7
330
1E
100
AcDbEntity
  8
SIZE
  6
CONTINUOUS
 62
    30
100
AcDbLine
 10
-477.9999999999945
 20
426.1000073814551
 30
0.0
 11
-482.9999999999945
 21
426.1000073814551
 31
0.0
  0
CIRCLE
  5
1C8
330
1E
100
AcDbEntity
  8
SIZE
  6
CONTINUOUS
 62
    30
100
AcDbCircle
 10
-539.9999999999945
 20
426.1000073814551
 30
0.0
 40
5.0
  0
LINE
  5
1C9
330
1E
100
AcDbEntity
  8
SIZE
  6
CONTINUOUS
 62
    30
100
AcDbLine
 10
-534.9999999999945
 20
426.1000073814551
 30
0.0
 11
-529.9999999999945
 21
426.1000073814551
 31
0.0
  0
TEXT
  5
1CA
330
1E
100
AcDbEntity
  8
SIZE
  6
CONTINUOUS
 62
    30
100
AcDbText
 10
-663.2571428571373
 20
446.1000073814552
 30
0.0
 40
64.0
  1
67
 41
0.9
 72
     1
 11
-616.6285714285659
 21
446.1000073814552
 31
0.0
100
AcDbText
  0
POINT
  5
1CB
330
1E
100
AcDbEntity
  8
DEFPOINTS
  6
CONTINUOUS
 62
     7
100
AcDbPoint
 10
-472.9999999999945
 20
338.0000000000045
 30
0.0
  0
POINT
  5
1CC
330
1E
100
AcDbEntity
  8
DEFPOINTS
  6
CONTINUOUS
 62
     7
100
AcDbPoint
 10
-539.9999999999945
 20
236.0000000000054
 30
0.0
  0
POINT
  5
1CD
330
1E
100
AcDbEntity
  8
DEFPOINTS
  6
CONTINUOUS
 62
     7
100
AcDbPoint
 10
-539.9999999999945
 20
426.1000073814551
 30
0.0
  0
LINE
  5
1CE
330
1E
100
AcDbEntity
  8
SIZE
  6
CONTINUOUS
 62
    30
100
AcDbLine
 10
-472.9999999999945
 20
358.000000000005
 30
0.0
 11
-472.9999999999945
 21
569.4071686758446
 31
0.0
  0
LINE
  5
1CF
330
1E
100
AcDbEntity
  8
SIZE
  6
CONTINUOUS
 62
    30
100
AcDbLine
 10
-545.9999999999945
 20
256.0000000000054
 30
0.0
 11
-545.9999999999945
 21
569.4071686758446
 31
0.0
  0
LINE
  5
1D0
330
1E
100
AcDbEntity
  8
SIZE
  6
CONTINUOUS
 62
    30
100
AcDbLine
 10
-482.9999999999945
 20
539.4071686758446
 30
0.0
 11
-535.9999999999945
 21
539.4071686758446
 31
0.0
  0
LINE
  5
1D1
330
1E
100
AcDbEntity
  8
SIZE
  6
CONTINUOUS
 62
    30
100
AcDbLine
 10
-545.9999999999945
 20
539.4071686758446
 30
0.0
 11
-689.2571428571374
 21
539.4071686758446
 31
0.0
  0
CIRCLE
  5
1D2
330
1E
100
AcDbEntity
  8
SIZE
  6
CONTINUOUS
 62
    30
100
AcDbCircle
 10
-472.9999999999945
 20
539.4071686758446
 30
0.0
 40
5.0
  0
LINE
  5
1D3
330
1E
100
AcDbEntity
  8
SIZE
  6
CONTINUOUS
 62
    30
100
AcDbLine
 10
-477.9999999999945
 20
539.4071686758446
 30
0.0
 11
-482.9999999999945
 21
539.4071686758446
 31
0.0
  0
CIRCLE
  5
1D4
330
1E
100
AcDbEntity
  8
SIZE
  6
CONTINUOUS
 62
    30
100
AcDbCircle
 10
-545.9999999999945
 20
539.4071686758446
 30
0.0
 40
5.0
  0
LINE
  5
1D5
330
1E
100
AcDbEntity
  8
SIZE
  6
CONTINUOUS
 62
    30
100
AcDbLine
 10
-540.9999999999945
 20
539.4071686758446
 30
0.0
 11
-535.9999999999945
 21
539.4071686758446
 31
0.0
  0
TEXT
  5
1D6
330
1E
100
AcDbEntity
  8
SIZE
  6
CONTINUOUS
 62
    30
100
AcDbText
 10
-669.2571428571373
 20
559.4071686758447
 30
0.0
 40
64.0
  1
73
 41
0.9
 72
     1
 11
-622.6285714285658
 21
559.4071686758447
 31
0.0
100
AcDbText
  0
POINT
  5
1D7
330
1E
100
AcDbEntity
  8
DEFPOINTS
  6
CONTINUOUS
 62
     7
100
AcDbPoint
 10
-472.9999999999945
 20
338.000000000005
 30
0.0
  0
POINT
  5
1D8
330
1E
100
AcDbEntity
  8
DEFPOINTS
  6
CONTINUOUS
 62
     7
100
AcDbPoint
 10
-545.9999999999945
 20
236.0000000000054
 30
0.0
  0
POINT
  5
1D9
330
1E
100
AcDbEntity
  8
DEFPOINTS
  6
CONTINUOUS
 62
     7
100
AcDbPoint
 10
-545.9999999999945
 20
539.4071686758446
 30
0.0
  0
LINE
  5
1DA
330
1E
100
AcDbEntity
  8
DETAIL
  6
CONTINUOUS
 62
     5
100
AcDbLine
 10
-472.9999999999945
 20
238.0000000000041
 30
0.0
 11
-586.9999999999962
 21
238.000000000005
 31
0.0
  0
LINE
  5
1DB
330
1E
100
AcDbEntity
  8
NOTE
  6
CONTINUOUS
 62
     4
100
AcDbLine
 10
-472.9999999999945
 20
258.0000000000044
 30
0.0
 11
-472.9999999999945
 21
298.0000000000044
 31
0.0
  0
LWPOLYLINE
  5
1DC
330
1E
100
AcDbEntity
  8
NOTE
  6
CONTINUOUS
 62
     4
100
AcDbPolyline
 90
        3
 70
     0
 43
0.0
 10
-505.0006281124059
 20
301.9991628875382
 10
-472.9999999999964
 20
278.0000000000045
 10
-488.7137755867787
 20
314.7841982622952
  0
LINE
  5
1E1
330
1E
100
AcDbEntity
  8
NOTE
  6
CONTINUOUS
 62
     4
100
AcDbLine
 10
-492.9999999999944
 20
278.0000000000045
 30
0.0
 11
-452.9999999999945
 21
278.0000000000041
 31
0.0
  0
LINE
  5
1E2
330
1E
100
AcDbEntity
  8
NOTE
  6
CONTINUOUS
 62
     4
100
AcDbLine
 10
-917.4512243207608
 20
-575.3321279044548
 30
0.0
 11
-1095.44296332076
 21
-575.332127904454
 31
0.0
  0
TEXT
  5
1E3
330
1E
100
AcDbEntity
  8
NOTE
  6
CONTINUOUS
 62
     4
100
AcDbText
 10
-1049.59460232076
 20
-551.9962529044541
 30
0.0
 40
64.0
  1
D2
 41
0.9
100
AcDbText
  0
LINE
  5
1E4
330
1E
100
AcDbEntity
  8
NOTE
  6
CONTINUOUS
 62
     4
100
AcDbLine
 10
-973.9036829999987
 20
-148.3351449999909
 30
0.0
 11
-1271.679
 21
-148.3351449999876
 31
0.0
  0
TEXT
  5
1E5
330
1E
100
AcDbEntity
  8
NOTE
  6
CONTINUOUS
 62
     4
100
AcDbText
 10
-1226.17938019619
 20
-122.0872162825721
 30
0.0
 40
64.0
  1
CL,EL
 41
0.9
100
AcDbText
  0
TEXT
  5
1E6
330
1E
100
AcDbEntity
  8
NOTE
  6
CONTINUOUS
 62
     4
100
AcDbText
 10
-1320.933346239618
 20
806.7951478713274
 30
0.0
 40
64.0
  1
D1 VP-25
 41
0.9
100
AcDbText
  0
LINE
  5
1E7
330
1E
100
AcDbEntity
  8
NOTE
  6
CONTINUOUS
 62
     4
100
AcDbLine
 10
-1349.649250989559
 20
780.7862208713282
 30
0.0
 11
-874.1344389895584
 21
780.7862208713229
 31
0.0
  0
LINE
  5
1E8
330
1E
100
AcDbEntity
  8
DETAIL
  6
CONTINUOUS
 62
     5
100
AcDbLine
 10
-472.999999999998
 20
219.1750000000046
 30
0.0
 11
-539.999999999998
 21
219.1750000000046
 31
0.0
  0
LINE
  5
1E9
330
1E
100
AcDbEntity
  8
DETAIL
  6
CONTINUOUS
 62
     5
100
AcDbLine
 10
-472.999999999998
 20
212.8250000000043
 30
0.0
 11
-539.999999999998
 21
212.8250000000043
 31
0.0
  0
LINE
  5
1EA
330
1E
100
AcDbEntity
  8
DETAIL
  6
CONTINUOUS
 62
     5
100
AcDbLine
 10
-472.999999999998
 20
222.350000000004
 30
0.0
 11
-545.9999999999982
 21
222.3500000000044
 31
0.0
  0
LINE
  5
1EB
330
1E
100
AcDbEntity
  8
DETAIL
  6
CONTINUOUS
 62
     5
100
AcDbLine
 10
-472.999999999998
 20
209.6500000000045
 30
0.0
 11
-545.9999999999982
 21
209.650000000004
 31
0.0
  0
LINE
  5
1EC
330
1E
100
AcDbEntity
  8
DETAIL
  6
CONTINUOUS
 62
     5
100
AcDbLine
 10
-545.9999999999982
 20
222.3500000000044
 30
0.0
 11
-545.9999999999982
 21
209.6500000000045
 31
0.0
  0
LINE
  5
1ED
330
1E
100
AcDbEntity
  8
DETAIL
  6
CONTINUOUS
 62
     5
100
AcDbLine
 10
-539.999999999998
 20
219.1750000000046
 30
0.0
 11
-539.999999999998
 21
212.8250000000043
 31
0.0
  0
LINE
  5
1EE
330
1E
100
AcDbEntity
  8
OUTLINE
  6
CONTINUOUS
 62
     3
100
AcDbLine
 10
-617.9999999999981
 20
-7.999999999993631
 30
0.0
 11
618.0
 21
-8.000000000005455
 31
0.0
  0
LINE
  5
1EF
330
1E
100
AcDbEntity
  8
OUTLINE
  6
CONTINUOUS
 62
     3
100
AcDbLine
 10
-624.999999999998
 20
0.0000000000063665
 30
0.0
 11
625.0
 21
-0.000000000005457
 31
0.0
  0
LINE
  5
1F0
330
1E
100
AcDbEntity
  8
OUTLINE
  6
CONTINUOUS
 62
     3
100
AcDbLine
 10
-592.9999999999981
 20
45.00000000000546
 30
0.0
 11
593.0000000000017
 21
44.99999999999363
 31
0.0
  0
LINE
  5
1F1
330
1E
100
AcDbEntity
  8
OUTLINE
  6
CONTINUOUS
 62
     3
100
AcDbLine
 10
-472.9999999999945
 20
338.0000000000054
 30
0.0
 11
473.0000000000053
 21
337.9999999999944
 31
0.0
  0
LINE
  5
1F2
330
1E
100
AcDbEntity
  8
OUTLINE
  6
CONTINUOUS
 62
     3
100
AcDbLine
 10
-472.9999999999945
 20
338.0000000000054
 30
0.0
 11
-472.999999999998
 21
45.00000000000546
 31
0.0
  0
LINE
  5
1F3
330
1E
100
AcDbEntity
  8
OUTLINE
  6
CONTINUOUS
 62
     3
100
AcDbLine
 10
-586.9999999999962
 20
238.0000000000054
 30
0.0
 11
-586.9999999999962
 21
188.0000000000054
 31
0.0
  0
LINE
  5
1F4
330
1E
100
AcDbEntity
  8
OUTLINE
  6
CONTINUOUS
 62
     3
100
AcDbLine
 10
-592.9999999999981
 20
45.00000000000546
 30
0.0
 11
-592.9999999999981
 21
0.000000000005457
 31
0.0
  0
LINE
  5
1F5
330
1E
100
AcDbEntity
  8
OUTLINE
  6
CONTINUOUS
 62
     3
100
AcDbLine
 10
-624.999999999998
 20
0.000000000005457
 30
0.0
 11
-624.999999999998
 21
-0.9999999999945428
 31
0.0
  0
ARC
  5
1F6
330
1E
100
AcDbEntity
  8
OUTLINE
  6
CONTINUOUS
 62
     3
100
AcDbCircle
 10
-617.9999999999981
 20
-0.9999999999945428
 30
0.0
 40
7.0
100
AcDbArc
 50
180.0
 51
270.0
  0
LINE
  5
1F7
330
1E
100
AcDbEntity
  8
OUTLINE
  6
CONTINUOUS
 62
     3
100
AcDbLine
 10
-472.9999999999964
 20
156.0800000000053
 30
0.0
 11
-586.9999999999962
 21
188.0000000000054
 31
0.0
  0
LINE
  5
1F8
330
1E
100
AcDbEntity
  8
OUTLINE
  6
CONTINUOUS
 62
     3
100
AcDbLine
 10
-522.9999999999964
 20
148.0000000000053
 30
0.0
 11
-522.9999999999964
 21
145.700000000006
 31
0.0
  0
LINE
  5
1F9
330
1E
100
AcDbEntity
  8
OUTLINE
  6
CONTINUOUS
 62
     3
100
AcDbLine
 10
-472.9999999999964
 20
84.50000000000455
 30
0.0
 11
-502.999999999998
 21
84.50000000000363
 31
0.0
  0
LINE
  5
1FA
330
1E
100
AcDbEntity
  8
OUTLINE
  6
CONTINUOUS
 62
     3
100
AcDbLine
 10
-472.9999999999964
 20
59.50000000000454
 30
0.0
 11
-502.999999999998
 21
59.50000000000365
 31
0.0
  0
LINE
  5
1FB
330
1E
100
AcDbEntity
  8
OUTLINE
  6
CONTINUOUS
 62
     3
100
AcDbLine
 10
-502.999999999998
 20
84.50000000000455
 30
0.0
 11
-502.999999999998
 21
59.50000000000454
 31
0.0
  0
LINE
  5
1FC
330
1E
100
AcDbEntity
  8
OUTLINE
  6
CONTINUOUS
 62
     3
100
AcDbLine
 10
-522.9999999999964
 20
145.7000000000052
 30
0.0
 11
-472.9999999999964
 21
145.7000000000043
 31
0.0
  0
LINE
  5
1FD
330
1E
100
AcDbEntity
  8
OUTLINE
  6
CONTINUOUS
 62
     3
100
AcDbLine
 10
-522.9999999999964
 20
148.0000000000053
 30
0.0
 11
-472.9999999999964
 21
148.0000000000053
 31
0.0
  0
LINE
  5
1FE
330
1E
100
AcDbEntity
  8
OUTLINE
  6
CONTINUOUS
 62
     3
100
AcDbLine
 10
-472.9999999999945
 20
238.0000000000035
 30
0.0
 11
-586.9999999999962
 21
238.0000000000054
 31
0.0
  0
LINE
  5
1FF
330
1E
100
AcDbEntity
  8
OUTLINE
  6
CONTINUOUS
 62
     3
100
AcDbLine
 10
473.0000000000053
 20
337.9999999999954
 30
0.0
 11
473.0000000000017
 21
44.99999999999545
 31
0.0
  0
LINE
  5
200
330
1E
100
AcDbEntity
  8
OUTLINE
  6
CONTINUOUS
 62
     3
100
AcDbLine
 10
593.0000000000017
 20
44.99999999999454
 30
0.0
 11
593.0
 21
-0.000000000005457
 31
0.0
  0
LINE
  5
201
330
1E
100
AcDbEntity
  8
OUTLINE
  6
CONTINUOUS
 62
     3
100
AcDbLine
 10
625.0
 20
-1.000000000005456
 30
0.0
 11
625.0
 21
-0.000000000005457
 31
0.0
  0
ARC
  5
202
330
1E
100
AcDbEntity
  8
OUTLINE
  6
CONTINUOUS
 62
     3
100
AcDbCircle
 10
618.0
 20
-1.000000000005456
 30
0.0
 40
7.0
100
AcDbArc
 50
270.0
 51
0.0
  0
LINE
  5
203
330
1E
100
AcDbEntity
  8
OUTLINE
  6
CONTINUOUS
 62
     3
100
AcDbLine
 10
523.0000000000017
 20
147.9999999999944
 30
0.0
 11
523.0000000000017
 21
145.6999999999951
 31
0.0
  0
LINE
  5
204
330
1E
100
AcDbEntity
  8
OUTLINE
  6
CONTINUOUS
 62
     3
100
AcDbLine
 10
473.0000000000017
 20
145.6999999999951
 30
0.0
 11
523.0000000000017
 21
145.6999999999951
 31
0.0
  0
LINE
  5
205
330
1E
100
AcDbEntity
  8
OUTLINE
  6
CONTINUOUS
 62
     3
100
AcDbLine
 10
473.0000000000017
 20
147.9999999999954
 30
0.0
 11
523.0000000000017
 21
147.9999999999944
 31
0.0
  0
LINE
  5
206
330
1E
100
AcDbEntity
  8
NOTE
  6
CONTINUOUS
 62
     4
100
AcDbLine
 10
-2889.287626808141
 20
583.7848652465136
 30
0.0
 11
-992.6977658081433
 21
583.7848652465136
 31
0.0
  0
LINE
  5
207
330
1E
100
AcDbEntity
  8
NOTE
  6
CONTINUOUS
 62
     4
100
AcDbLine
 10
-2661.970814535495
 20
-367.5340543476277
 30
0.0
 11
-1042.757627535495
 21
-367.5340543476277
 31
0.0
  0
TEXT
  5
208
330
1E
100
AcDbEntity
  8
NOTE
  6
CONTINUOUS
 62
     4
100
AcDbText
 10
-2628.671864966142
 20
-644.0634029377206
 30
0.0
 40
64.0
  1
The other outdoor unit : %%c15.88
 41
0.9
100
AcDbText
  0
TEXT
  5
209
330
1E
100
AcDbEntity
  8
NOTE
  6
CONTINUOUS
 62
     4
100
AcDbText
 10
-2799.600993116892
 20
330.5794011149845
 30
0.0
 40
64.0
  1
The other outdoor unit : %%c9.52
 41
0.9
100
AcDbText
  0
TEXT
  5
20A
330
1E
100
AcDbEntity
  8
NOTE
  6
CONTINUOUS
 62
     4
100
AcDbText
 10
-2619.311231000157
 20
-505.5119828291561
 30
0.0
 40
64.0
  1
R410A outdoor unit : %%c12.7
 41
0.9
100
AcDbText
  0
TEXT
  5
20B
330
1E
100
AcDbEntity
  8
NOTE
  6
CONTINUOUS
 62
     4
100
AcDbText
 10
-2789.024654961591
 20
456.2398299553641
 30
0.0
 40
64.0
  1
R410A outdoor unit : %%c6.35
 41
0.9
100
AcDbText
  0
TEXT
  5
20C
330
1E
100
AcDbEntity
  8
NOTE
  6
CONTINUOUS
 62
     4
100
AcDbText
 10
-2791.464387315904
 20
627.8285735749459
 30
0.0
 40
64.0
  1
RL %%c6.35
 41
0.9
100
AcDbText
  0
TEXT
  5
20D
330
1E
100
AcDbEntity
  8
NOTE
  6
CONTINUOUS
 62
     4
100
AcDbText
 10
-2616.250399418885
 20
-330.7698451723307
 30
0.0
 40
64.0
  1
RG %%c12.7
 41
0.9
100
AcDbText
  0
LINE
  5
20E
330
1E
100
AcDbEntity
  8
SIZE
  6
CONTINUOUS
 62
    30
100
AcDbLine
 10
-251.9999999999963
 20
196.0000000000021
 30
0.0
 11
-251.9999999999963
 21
218.1932224457522
 31
0.0
  0
LINE
  5
20F
330
1E
100
AcDbEntity
  8
SIZE
  6
CONTINUOUS
 62
    30
100
AcDbLine
 10
183.0000000000044
 20
195.999999999995
 30
0.0
 11
183.0000000000044
 21
218.1932224457522
 31
0.0
  0
LINE
  5
210
330
1E
100
AcDbEntity
  8
SIZE
  6
CONTINUOUS
 62
    30
100
AcDbLine
 10
-241.9999999999963
 20
188.1932224457522
 30
0.0
 11
173.0000000000044
 21
188.1932224457522
 31
0.0
  0
CIRCLE
  5
211
330
1E
100
AcDbEntity
  8
SIZE
  6
CONTINUOUS
 62
    30
100
AcDbCircle
 10
-251.9999999999963
 20
188.1932224457522
 30
0.0
 40
5.0
  0
LINE
  5
212
330
1E
100
AcDbEntity
  8
SIZE
  6
CONTINUOUS
 62
    30
100
AcDbLine
 10
-246.9999999999962
 20
188.1932224457522
 30
0.0
 11
-241.9999999999963
 21
188.1932224457522
 31
0.0
  0
CIRCLE
  5
213
330
1E
100
AcDbEntity
  8
SIZE
  6
CONTINUOUS
 62
    30
100
AcDbCircle
 10
183.0000000000044
 20
188.1932224457522
 30
0.0
 40
5.0
  0
LINE
  5
214
330
1E
100
AcDbEntity
  8
SIZE
  6
CONTINUOUS
 62
    30
100
AcDbLine
 10
178.0000000000044
 20
188.1932224457522
 30
0.0
 11
173.0000000000044
 21
188.1932224457522
 31
0.0
  0
TEXT
  5
215
330
1E
100
AcDbEntity
  8
SIZE
  6
CONTINUOUS
 62
    30
100
AcDbText
 10
-108.5571428571387
 20
208.1932224457523
 30
0.0
 40
64.0
  1
435
 41
0.9
 72
     1
 11
-34.4999999999959
 21
208.1932224457523
 31
0.0
100
AcDbText
  0
POINT
  5
216
330
1E
100
AcDbEntity
  8
DEFPOINTS
  6
CONTINUOUS
 62
     7
100
AcDbPoint
 10
-251.9999999999963
 20
176.0000000000021
 30
0.0
  0
POINT
  5
217
330
1E
100
AcDbEntity
  8
DEFPOINTS
  6
CONTINUOUS
 62
     7
100
AcDbPoint
 10
183.0000000000044
 20
175.999999999995
 30
0.0
  0
POINT
  5
218
330
1E
100
AcDbEntity
  8
DEFPOINTS
  6
CONTINUOUS
 62
     7
100
AcDbPoint
 10
183.0000000000044
 20
188.1932224457522
 30
0.0
  0
ENDSEC
  0
SECTION
  2
OBJECTS
  0
DICTIONARY
  5
C
330
0
100
AcDbDictionary
  3
ACAD_GROUP
350
D
  3
ACAD_LAYOUT
350
19
  3
ACAD_MLINESTYLE
350
16
  3
ACAD_PLOTSETTINGS
350
18
  3
ACAD_PLOTSTYLENAME
350
E
  3
ACDBHEADERROUNDTRIPXREC
350
21B
  0
DICTIONARY
  5
23E
330
1E
100
AcDbDictionary
280
     1
  3
ACAD_LAYOUTSELFREF
360
23F
  0
DICTIONARY
  5
23C
330
1A
100
AcDbDictionary
280
     1
  3
ACAD_LAYOUTSELFREF
360
23D
  0
DICTIONARY
  5
D
102
{ACAD_REACTORS
330
C
102
}
330
C
100
AcDbDictionary
  0
DICTIONARY
  5
19
102
{ACAD_REACTORS
330
C
102
}
330
C
100
AcDbDictionary
  0
DICTIONARY
  5
16
102
{ACAD_REACTORS
330
C
102
}
330
C
100
AcDbDictionary
  3
STANDARD
350
17
  0
DICTIONARY
  5
18
102
{ACAD_REACTORS
330
C
102
}
330
C
100
AcDbDictionary
  0
ACDBDICTIONARYWDFLT
  5
E
102
{ACAD_REACTORS
330
C
102
}
330
C
100
AcDbDictionary
281
     1
  3
Normal
350
F
100
AcDbDictionaryWithDefault
340
F
  0
DICTIONARY
  5
21B
102
{ACAD_REACTORS
330
C
102
}
330
C
100
AcDbDictionary
  3
CEPSNTYPE
350
225
  3
DIMSTYLEDATA
350
229
  3
FINGERPRINTGUID
350
226
  3
HYPERLINKBASE
350
21E
  3
INSUNITS
350
224
  3
LAYOUTDICT
350
220
  3
LWETCUNION
350
223
  3
PLOTSETDICT
350
221
  3
PLOTSTYLNAMDICT
350
222
  3
PSVPSCALE
350
228
  3
PUCSBASE
350
22C
  3
PUCSORGBACK
350
232
  3
PUCSORGBOTTOM
350
22E
  3
PUCSORGFRONT
350
231
  3
PUCSORGLEFT
350
22F
  3
PUCSORGRIGHT
350
230
  3
PUCSORGTOP
350
22D
  3
PUCSORTHOREF
350
22A
  3
PUCSORTHOVIEW
350
22B
  3
STYLESHEET
350
21F
  3
TSTACKALIGN
350
21C
  3
TSTACKSIZE
350
21D
  3
UCSBASE
350
235
  3
UCSORGBACK
350
23B
  3
UCSORGBOTTOM
350
237
  3
UCSORGFRONT
350
23A
  3
UCSORGLEFT
350
238
  3
UCSORGRIGHT
350
239
  3
UCSORGTOP
350
236
  3
UCSORTHOREF
350
233
  3
UCSORTHOVIEW
350
234
  3
VERSIONGUID
350
227
  0
XRECORD
  5
23F
102
{ACAD_REACTORS
330
23E
102
}
330
23E
100
AcDbXrecord
340
1E
  0
XRECORD
  5
23D
102
{ACAD_REACTORS
330
23C
102
}
330
23C
100
AcDbXrecord
340
1A
  0
MLINESTYLE
  5
17
102
{ACAD_REACTORS
330
16
102
}
330
16
100
AcDbMlineStyle
  2
STANDARD
 70
     0
  3

 62
   256
 51
90.0
 52
90.0
 71
     2
 49
0.5
 62
   256
  6
BYLAYER
 49
-0.5
 62
   256
  6
BYLAYER
  0
ACDBPLACEHOLDER
  5
F
102
{ACAD_REACTORS
330
E
102
}
330
E
100
AcDbPlaceHolder
280
     0
  0
XRECORD
  5
225
102
{ACAD_REACTORS
330
21B
102
}
330
21B
100
AcDbXrecord
 90
        0
  0
XRECORD
  5
229
102
{ACAD_REACTORS
330
21B
102
}
330
21B
100
AcDbXrecord
1000
DSTYLE
1002
{
1070
   341
340
39
1070
   342
340
39
1070
   343
340
39
1070
   344
340
34
1002
}
  0
XRECORD
  5
226
102
{ACAD_REACTORS
330
21B
102
}
330
21B
100
AcDbXrecord
  1
{5A4EE7EC-5FD8-4210-8CC7-7D5D0BC45C23}
  0
XRECORD
  5
21E
102
{ACAD_REACTORS
330
21B
102
}
330
21B
100
AcDbXrecord
  1

  0
XRECORD
  5
224
102
{ACAD_REACTORS
330
21B
102
}
330
21B
100
AcDbXrecord
 90
        0
  0
XRECORD
  5
220
102
{ACAD_REACTORS
330
21B
102
}
330
21B
100
AcDbXrecord
340
19
  0
XRECORD
  5
223
102
{ACAD_REACTORS
330
21B
102
}
330
21B
100
AcDbXrecord
 90
    10781
  0
XRECORD
  5
221
102
{ACAD_REACTORS
330
21B
102
}
330
21B
100
AcDbXrecord
340
18
  0
XRECORD
  5
222
102
{ACAD_REACTORS
330
21B
102
}
330
21B
100
AcDbXrecord
340
E
  0
XRECORD
  5
228
102
{ACAD_REACTORS
330
21B
102
}
330
21B
100
AcDbXrecord
 40
0.0
  0
XRECORD
  5
22C
102
{ACAD_REACTORS
330
21B
102
}
330
21B
100
AcDbXrecord
340
0
  0
XRECORD
  5
232
102
{ACAD_REACTORS
330
21B
102
}
330
21B
100
AcDbXrecord
 10
0.0
 20
0.0
 30
0.0
  0
XRECORD
  5
22E
102
{ACAD_REACTORS
330
21B
102
}
330
21B
100
AcDbXrecord
 10
0.0
 20
0.0
 30
0.0
  0
XRECORD
  5
231
102
{ACAD_REACTORS
330
21B
102
}
330
21B
100
AcDbXrecord
 10
0.0
 20
0.0
 30
0.0
  0
XRECORD
  5
22F
102
{ACAD_REACTORS
330
21B
102
}
330
21B
100
AcDbXrecord
 10
0.0
 20
0.0
 30
0.0
  0
XRECORD
  5
230
102
{ACAD_REACTORS
330
21B
102
}
330
21B
100
AcDbXrecord
 10
0.0
 20
0.0
 30
0.0
  0
XRECORD
  5
22D
102
{ACAD_REACTORS
330
21B
102
}
330
21B
100
AcDbXrecord
 10
0.0
 20
0.0
 30
0.0
  0
XRECORD
  5
22A
102
{ACAD_REACTORS
330
21B
102
}
330
21B
100
AcDbXrecord
340
0
  0
XRECORD
  5
22B
102
{ACAD_REACTORS
330
21B
102
}
330
21B
100
AcDbXrecord
 70
     0
  0
XRECORD
  5
21F
102
{ACAD_REACTORS
330
21B
102
}
330
21B
100
AcDbXrecord
  1

  0
XRECORD
  5
21C
102
{ACAD_REACTORS
330
21B
102
}
330
21B
100
AcDbXrecord
 90
        1
  0
XRECORD
  5
21D
102
{ACAD_REACTORS
330
21B
102
}
330
21B
100
AcDbXrecord
 90
       70
  0
XRECORD
  5
235
102
{ACAD_REACTORS
330
21B
102
}
330
21B
100
AcDbXrecord
340
0
  0
XRECORD
  5
23B
102
{ACAD_REACTORS
330
21B
102
}
330
21B
100
AcDbXrecord
 10
0.0
 20
0.0
 30
0.0
  0
XRECORD
  5
237
102
{ACAD_REACTORS
330
21B
102
}
330
21B
100
AcDbXrecord
 10
0.0
 20
0.0
 30
0.0
  0
XRECORD
  5
23A
102
{ACAD_REACTORS
330
21B
102
}
330
21B
100
AcDbXrecord
 10
0.0
 20
0.0
 30
0.0
  0
XRECORD
  5
238
102
{ACAD_REACTORS
330
21B
102
}
330
21B
100
AcDbXrecord
 10
0.0
 20
0.0
 30
0.0
  0
XRECORD
  5
239
102
{ACAD_REACTORS
330
21B
102
}
330
21B
100
AcDbXrecord
 10
0.0
 20
0.0
 30
0.0
  0
XRECORD
  5
236
102
{ACAD_REACTORS
330
21B
102
}
330
21B
100
AcDbXrecord
 10
0.0
 20
0.0
 30
0.0
  0
XRECORD
  5
233
102
{ACAD_REACTORS
330
21B
102
}
330
21B
100
AcDbXrecord
340
0
  0
XRECORD
  5
234
102
{ACAD_REACTORS
330
21B
102
}
330
21B
100
AcDbXrecord
 70
     0
  0
XRECORD
  5
227
102
{ACAD_REACTORS
330
21B
102
}
330
21B
100
AcDbXrecord
  1
{5708DA0F-B6B2-4564-8AD9-7E4559F5343D}
  0
ENDSEC
  0
EOF
